Oops, an error
Loading. Please wait.

Holiday Bass Tab

792 views 3 this week
1 commentread comment
1 2 3 4 5
1 last vote to show rating
add to favorites
launch autoscroll
font size
0
reset
guitar tuner
Autoscroll
slow
fast
+/-
esc
set tempo
stop
Help us to improve Ultimate-Guitar.com Take our survey!
×
Hi, this is my first tab, it's totally not 100%, but it sounds good enough. (the breaks 
you can hear yourself)

Holiday
Will And The People


Intro/Verse
G|---------------------------------|
D|-------------------------7-7-----|
A|---------7-7-----5-5-8-8-----8-8-|
E|-5-5-8-8-----8-8-----------------|


Pre-Chorus
G|---------5-5--7\0-----------------5-5--7/12---------|
D|-----------------------5-5--7\0---------------------|
A|----------------------------------------------------|
E|---5\0----------------------------------------------|


Chorus
G|--------------10------------------------------------------------9----------|
D|------------------10--7-----------------7--------------6--9--6-----9--6----|
A|--------8----------------8--------7--------7--------7--------------------7-|
E|--5--8-----8----------------5--8-----8--------8--5-------------------------|

G|------------------------------|
D|------------------------------|
A|--------7-----------7h8p7-----|
E|--5--8-----8--5--8---------8--|

G|--------------10------------------------------------------------5--7--5----|
D|------------------10--7-----------------7--------------------7-------------|
A|--------8----------------8--------7--------7--------------8--------------7-|
E|--5--8-----8----------------5--8-----8--------8--5-------------------------|


Verse
G|---------------------------------|
D|-------------------------7-7-----|
A|---------7-7-----5-5-8-8-----8-8-|
E|-5-5-8-8-----8-8-----------------|


Pre-Chorus
G|---------5-5--7\0-----------------5-5--7/-----------|
D|-----------------------5-5--7\0---------------------|
A|----------------------------------------------------|
E|---5\0----------------------------------------------|

Chorus
G|--------------10------------------------------------------------9----------|
D|------------------10--7-----------------7--------------6--9--6-----9--6----|
A|--------8----------------8--------7--------7--------7--------------------7-|
E|--5--8-----8----------------5--8-----8--------8--5-------------------------|

G|------------------------------|
D|------------------------------|
A|--------7-----------7h8p7-----|
E|--5--8-----8--5--8---------8--|

G|--------------10-------------------------------------------------5--7--5---|
D|------------------10--7-----------------7---------------------7------------|
A|--------8----------------8--------7--------7---------------8-------------7-|
E|--5--8-----8----------------5--8-----8--------8--5-------------------------|


Bridge
G|-----------9-----10-----12-----------9-----10-----10-----------------------|
D|-----7-------------------------7-------------------------------------------|
A|--------7-----8------10------------7-----8------8------7--7--7--7--7----7--|
E|--5-------------------------5----------------------------------------------|


Chorus
G|--------------10------------------------------------------------9----------|
D|------------------10--7-----------------7--------------6--9--6-----9--6----|
A|--------8----------------8--------7--------7--------7--------------------7-|
E|--5--8-----8----------------5--8-----8--------8--5-------------------------|

G|------------------------------|
D|------------------------------|
A|--------7-----------7h8p7-----|
E|--5--8-----8--5--8---------8--|

G|--------------10------------------------------------------------5--7--5----|
D|------------------10--7-----------------7--------------------7-------------|
A|--------8----------------8--------7--------7-------------8---------------7-|
E|--5--8-----8----------------5--8-----8--------8--5-------------------------|


Verse
G|---------------------------------|
D|-------------------------7-7-----|
A|---------7-7-----5-5-8-8-----8-8-|
E|-5-5-8-8-----8-8-----------------|


End
G|---------------------------|
D|---------------------------|
A|--5-5-5-5-5--5\0-----------|
E|---------------------------|
Suggest correction
Give kudos to tab author, rate the tab!
1 2 3 4 5
comments
print report bad tab
1 comment total.
0 reply
Tapwater 134 Apr 24, 2016 09:36 AM

I'm rating this 3/5 because it does work, but the issues is mainly te pre-chorus which doesn't really work all that well and playing the root notes for it just sounds miles better.

G|---------|
D|---------|
A|---5---5-|
E|-5---5---|

guest
You may want to rate the tab now too:
select rating
Wanna post a correction for this tab? Suggest correction