Oops, an error
Loading. Please wait.

Salamander Bass Tab

757 views 1 this week
no commentswrite comment
1 2 3 4 5
please rate
add to favorites
launch autoscroll
font size
0
reset
guitar tuner
Autoscroll
slow
fast
+/-
esc
set tempo
stop
Help us to improve Ultimate-Guitar.com Take our survey!
×
Author
Difficulty
novice
WILL AND THE PEOPLE - SALAMANDER
(tabbed by Jeroen82)
(Standard tuning: EADG)

INTRO (Officially there's no bass, but I always play)
G|------|-----|-------|-----|
D|------|-----|-------|-----|
A|-4~~~~|~~~~~|-4~~~~~|~~~~~|
E|------|-----|-------|-----|

VERSE 1 (Blue is the queue that you're in today...)
G|----------|-------|----------|--------|
D|----------|-------|----------|--------|
A|-4-4----4-|-------|-4-4----4-|-----76-| x4
E|----4444--|-2-22--|----4444--|-2--2---|

PRE-CHORUS 1 (I took a bit of love from a hard knock life...)
G|--------|----------|------|---------|
D|--------|--------6-|-4~~~-|---------|
A|-----6--|-4444-7---|------|-7---6---|
E|-4------|----------|------|---------|

(I needed to do it myself...)
G|----------|------|------|----|
D|--------6-|-4~~~-|------|----|
A|-4444-7---|------|------|----|
E|----------|------|-4~~~~|~~~~|

CHORUS 1 (I used to slither like a salamander...)
G|----------|-------|----------|-------|
D|----------|-------|----------|-------|
A|----------|-------|-3-33-3-4-|-4-4-4-| x4
E|-5-55-5-4-|-4-4-4-|----------|-------|

VERSE 2 (What is the point if you worry away...)
G|--------|--------|----------|--------|
D|--------|--------|----------|--------|
A|--------|--------|-4-4----4-|-----76-|
E|--------|--------|----4444--|-2--2---|

(Do you believe everything people say...)
G|----------|-------|----------|--------|
D|----------|-------|----------|--------|
A|-4-4----4-|-------|-4-4----4-|-----76-| x3
E|----4444--|-2-22--|----4444--|-2--2---|

PRE-CHORUS 2 (I took a bit of love from a hard knock life...)
G|--------|----------|------|---------|
D|--------|--------6-|-4~~~-|---------|
A|-----6--|-4444-7---|------|-7---6---|
E|-4------|----------|------|---------|

(I needed to do it myself...)
G|----------|------|------|----|
D|--------6-|-4~~~-|------|----|
A|-4444-7---|------|------|----|
E|----------|------|-4~~~~|~~~~|

CHORUS 2 (I used to slither like a salamander...)
G|----------|-------|----------|-------|
D|----------|-------|----------|-------|
A|----------|-------|-3-33-3-4-|-4-4-4-| x2
E|-5-55-5-4-|-4-4-4-|----------|-------|

POST CHORUS 2 (I'm like salamander, manda, manda...)
G|-------|-------|-------|-------|
D|-------|-------|-------|-------|
A|----4--|----6--|-2--2--|-------|
E|-5-----|-4-----|-------|-2--2--|

BRIDGE (No way, I won't slither like a salamander no more...)
G|------|------|------|--------|
D|------|------|------|--------|
A|------|------|------|-44-6-7-| x2
E|-55-5-|-77-7-|-44-4-|--------|

G|-------|------|
D|-------|------|
A|---7---|------|
E|-5---5-|-4~~~-|

CHORUS 3
NO BASS x2

CHORUS 4
G|----------|-------|----------|-------|
D|----------|-------|----------|-------|
A|----------|-------|-3-33-3-4-|-4-4-4-| x2
E|-5-55-5-4-|-4-4-4-|----------|-------|

THEN NO BASS FOR 4 MEASURES
(Slither like a salamander, manda, manda, manda, manda, manda...)

(...manda, manda, manda, manda, slither like a sala-whoa!...)
G|----------|-------|----------|-------|
D|----------|-------|----------|-------|
A|----------|-------|-3-33-3-4-|-4-4-4-| x3
E|-5-55-5-4-|-4-4-4-|----------|-------|

OUTRO (Officially again, there's no bass but I play..)
(Pa pa papa dah...)
G|------|-----|-------|-----|-------|-----|
D|------|-----|-------|-----|-------|-----|
A|-4~~~~|~~~~~|-4~~~~~|~~~~~|-4~~~~~|~~~~~|
E|------|-----|-------|-----|-------|-----|

(Like a salamander)
G|---------|-----|
D|---------|-----|
A|-4-4-----|-----|
E|-----444-|-2x--|

Enjoy!
Suggest correction
Give kudos to tab author, rate the tab!
1 2 3 4 5
comments
print report bad tab
guest
You may want to rate the tab now too:
select rating
Please do not post tabs as comments. Select "correction" instead!