Oops, an error
Loading. Please wait.

Troubled Pro Tab

version 1
version 1

Intro

2,649 views 3 this week
no commentswrite comment
1 2 3 4 5
1 last vote to show rating
add to favorites
launch autoscroll
font size
0
reset
how to read this tab
guitar tuner
Autoscroll
slow
fast
+/-
esc
set tempo
stop
Help us to improve Ultimate-Guitar.com Take our survey!
×
Author
Difficulty
novice
My first tab, I think this tab is very close to the original.


e|-------------------------------------------------|
B|-------------------------------------------------|
G|-------------------------------------------------|
D|------9-9-9-9-----------------------7---7-7-7~---|
A|--7~------------10--10-10---5-5-5-5---5----------|
E|--------------8-----------3----------------------|

After intro:

i wake up in a lions head(?)

    Em   C    G    D
e|--7-|--8-|--3-|--5-|
B|--8-|--8-|--3-|--7-|
G|--9-|--9-|--4-|--7-|
D|--9-|--10-|-5-|--7-|
A|--7-|--10-|-5-|--5-|
E|--7-|--8-|--3-|--5-|

You.... complicate, its true..

    Em   C     X
e|--7-|--8-|---10-|
B|--8-|--8-|---10-|
G|--9-|--9-|---11-|
D|--9-|--10-|--12-|
A|--7-|--10-|--12-|
E|--7-|--8-|---10-|

Enjoying aint hard, because this song is really good.
Will work later on

Gz, Joost
Suggest correction
Give kudos to tab author, rate the tab!
1 2 3 4 5
comments
print report bad tab
guest
You may want to rate the tab now too:
select rating
Wanna post a correction for this tab? Suggest correction