Oops, an error
Loading. Please wait.

Afternoon Delight Tab

63,040 views 27 this week
12 commentsread comments
1 2 3 4 5
x 20
add to favorites
launch autoscroll
font size
0
reset
how to read this tab
guitar tuner
Autoscroll
slow
fast
+/-
esc
set tempo
stop
Help us to improve Ultimate-Guitar.com Take our survey!
×
Author
Capo
3rd fret
------------------------------------------------------------------------------
                             Afternoon Delight - Will Ferrell
-------------------------------------------------------------------------------
Tabbed by: slurms
Email: euan-tk@hotmail.com
Tuning: EADGBE With capo on 3rd fret (notes and chords relative to capo)




CHORDS USED (Relative To Capo)

e|--2--|--3--|--3--|--0--|--0--|--2--|
B|--3--|--3--|--3--|--2--|--3--|--3--|
G|--2--|--0--|--0--|--2--|--2--|--4--|
D|--0--|--0--|--0--|--2--|--0--|--4--|
A|-----|--2--|--2--|--0--|-----|--2--|
E|-----|--0--|--3--|-----|-----|-----|
    D    G/E    G     A    D/E   Bm



..................................................................................



Intro
e|-2-2-2-2-----0-------3-------2--------|-3-3-3-------0---------------0----------|
B|-3-3-3---3-----3---2---3-------3------|-3-3-3-3-------3-------3-------3--------|
G|-2-2-2-----2-----2-------2-------2----|-0-0-0---0-------0-------0-------0------|   
D|-0-0-0---------------------0-------0--|-0-0-0-----0-------0-0-----0------------|x2
A|--------------------------------------|-2-2-2----------------------------------|
E|--------------------------------------|-3-3-3----------------------------------|




(D)
Gonna find my baby, gonna hold her tight
(G/E)
Gonna grab some afternoon delight.
(D)
My motto's always been; when it's right, it's right.
(G/E)
Why wait until the middle of a cold dark night.
(G)                                       (A)
When everything's a little clearer in the light of day.
(G)                                       (A)
And you know the night is always gonna be there anyway.




(D)
Thinkin' of you's workin' up my appetite
(G/E)
Looking forward to a little afternoon delight.
(D)
Rubbin' sticks and stones together make some sparks ignite
(G/E)
And the thought of rubbin' you is getting so exciting.
(D) (D/E)      (D)     (A)       (Bm)     (G)       (D)
Sky rockets in flight. Afternoon delight. Afternoon delight.





(D)
Started out this morning feeling so polite
(G/E)
I always though a fish could not be caught who wouldn't bite
(D)
But you've got some bait a waitin' and I think I might try nibbling
(G/E)
A little afternoon delight.
(D) (D/E)      (D)     (A)       (Bm)      (G)      (D)
Sky rockets in flight. Afternoon delight. Afternoon delight.



Interlude
(G)(D)(G) 



(G)                                       (A)
Please be waiting for me baby when I come around.
(G)                                             (A)
We could make a lot of lovin' 'for the sun goes down.






(D)
Thinkin' of you's workin' up my appetite
(G/E)
Looking forward to a little afternoon delight.
(D)
Rubbin' sticks and stones together make some sparks ignite
(G/E)
And the thought of rubbin' you is getting so exciting.
(D) (D/E)      (D)     (A)       (Bm)     (G)       (D)      (G)
Sky rockets in flight. Afternoon delight. Afternoon delight. Afternoon 
(D)
delight.


Outro Fill
e|------------2------------|
B|------------3------------|
G|------------2------------|   
D|----0-------0------------|
A|-0h3-3p0-----------------|
E|--------3p0--------------|



| /  slide up
| \  slide down
| h  hammer-on
| p  pull-off
| ~  vibrato
| +  harmonic
| x  Mute note
|
|
| http://en.wikipedia.org/wiki/Will_Ferrell
===============================================================================
Suggest correction
comments
print report bad tab
12 comments total. Showing first comments.
0 reply
LPmoshpt24 31 Jul 05, 2009 06:11 PM

Great tab! 5 stars

0 reply
hunterm8 10 Sep 22, 2009 09:36 PM

An Emaj instead of a G on "when everthing's a little clearer" sounds a bit better, but a G may also be correct. The Emaj makes the two parts sound a bit more different.

+1 reply
hunterm8 10 Sep 22, 2009 09:55 PM

Sorry, I meant Emin

guest
You may want to rate the tab now too:
select rating
Wanna post a correction for this tab? Suggest correction