Oops, an error
Loading. Please wait.

Dolph Lundgren Tab

version 2
version 2

Whole song

153 views 1 this week
2 commentsread comments
1 2 3 4 5
3 more votes to show rating
add to favorites
launch autoscroll
font size
0
reset
how to read this tab
guitar tuner
Autoscroll
slow
fast
+/-
esc
set tempo
stop
Help us to improve Ultimate-Guitar.com Take our survey!
×
Dolph Lundgren
Will Haven
Carpe Diem

tabbed by mon.nom.est.thomas.martin@gmail.com

Tuning: B,F#,B,E,G#,C#

Riff 1:
|--------------------------|
|--------------------------|
|---------------------6----|
|--------------------------|
|---------------------4----|
|---0-1-2-0-4--0-1--0------|

Riff 2:
|---------------------------------------|
|---------------------------------------|
|-----------------------------------6---|
|---------------------------------------|
|-----------------------------------4---|
|---00-000-000-00-1---00-000-000-00-----|

Riff 3:
|------------------------|
|------------------------|
|---66-66-66-------------|
|------------------------|
|---44-44-44-0-1-0-------|
|------------0-1-0-10\---|

Riff 4:
|--------------------|
|--------------------|
|---5-5--------------|
|---4-4--------------|
|---4-4-0000000000---|
|---4-4-0000000000---|
 pm:    ..........

Riff 5:
|------------------|
|-----0-----0------|
|-----0-----0------|
|-----0-----0------|
|------------------|
|---1---/3----/6\--|

Riff 6:
|---------------------|
|---------0-----------|
|-----0---0-----------|
|-----0---0-----------|
|---------------------|
|---1----/5--0-1p0----|

Riff 7:
|------------------------|
|------------------------|
|------------------------|
|------------------------|
|------------------------|
|---0---6--5--3--2-3-1---|
Suggest correction
Give kudos to tab author, rate the tab!
1 2 3 4 5
comments
print report bad tab
2 comments total.
0 reply
emil_sej 348 Feb 14, 2012 03:15 PM

Definitely some flaws here

Riff 1:
|--------------------------|
|---------------------6----|
|---------------------6----|
|--------------------------|
|---------------------4----|
|---0-2-1-0-4--0-1--0------|

The 1 and 2 should be switched around. An added 6 on the b-string sounds right.

0 reply
emil_sej 348 Feb 14, 2012 03:16 PM

Riff 1:
|---------------------------|
|----------------------6----|
|----------------------6----|
|---------------------------|
|----------------------4----|
|---0-2-1-0-4--0-2-1-0------|

guest
You may want to rate the tab now too:
select rating
Wanna post a correction for this tab? Suggest correction