Oops, an error
Loading. Please wait.

Dressed In Night Clothes Tab

165 views 1 this week
no commentswrite comment
1 2 3 4 5
please rate
add to favorites
launch autoscroll
font size
0
reset
how to read this tab
guitar tuner
Autoscroll
slow
fast
+/-
esc
set tempo
stop
Help us to improve Ultimate-Guitar.com Take our survey!
×
Dressed in night clothes
Will Haven
Carpe Diem

tabbed by mon.nom.est.thomas.martin@gmail.com

Tuning: B,F#,B,E,G#,C#

Intro:
|----------------------------------------------------|
|---1313-131313-131313-131313-131313-131313-131313---|
|---1010-101010-101010-101010-101010-101010-101010---|
|----------------------------------------------------|
|----8-8--8-8-8--8-8-8--8-8-8--8-8-8--8-8-8--8-8-8---|
|----------------------------------------------------|

Riff 1:
|---------------------------------------------|
|---33-3-33-3-33-3-33-3-33-3-33-3-33-3-33-3---|
|------0----0----0----0----0----0----0----0---|
|---1100-1100-1100-1100-1100-1100-1100-1100---|
|---1100-1100-1100-1100-1100-1100-1100-1100---|
|---110--110--110--110--110--110--110--110----|

|--------------------------------------------------|
|--------------------------------------------------|
|---19191919191919191919191919191919191919191919---|
|--------------------------------------------------|
|---17171717171717171717171717171717171717171717---|
|--------------------------------------------------|

Riff 2:
|--------------------------------------------------------|
|---8-8-8-8-8-8--131313131313--5-5-5-5-5-5-5-5-5-5-5-5---|
|---7-7-7-7-7-7--121212121212--4-4-4-4-4-4-4-4-4-4-4-4---|
|---5-5-5-5-5-5--101010101010--2-2-2-2-2-2-2-2-2-2-2-2---|
|---5-5-5-5-5-5--101010101010--2-2-2-2-2-2-2-2-2-2-2-2---|
|---5-5-5-5-5-5--101010101010--2-2-2-2-2-2-2-2-2-2-2-2---|

Riff 3:
|--------------------------------------|
|--------------------------------------|
|--------------------------------------|
|-----(these are 1s, 0s and 3s)--------|
|--------------------------------------|
|---100-100-100-100-100-100-13-333-3---|

Riff 4: (w/ flanger)
|--------------------------|
|--------------------------|
|--7-----10101010-6-6666---|
|--0-----------------------|
|--0------8-88888-4-4444---|
|--0-----------------------|

|---------------------------------|
|---------------------------------|
|---777777777777777101010666666---|
|---------------------------------|
|---555555555555555888888444444---|
|---000000000000000000000000000---|

Riff 5:
|----------------------------------------|
|----------------------------------------|
|----------------------------------------|
|----------------------------------------|
|----------------------------------------|
|---1-2-1-4--1-2-1-4--1-2-1-4--1-2-1-4---|

Riff 6:
|----------------------------------------------------------|
|----------------------------------------------------------|
|----------------------------------------------------------|
|----------------------------------------------------------|
|----------------------------------------------------------|
|---000000000000000000000-10\---000000000000000000000000---|
Suggest correction
Give kudos to tab author, rate the tab!
1 2 3 4 5
comments
print report bad tab
guest
You may want to rate the tab now too:
select rating
Wanna post a correction for this tab? Suggest correction