Oops, an error
Loading. Please wait.

Ive Seen My Fate Tab

210 views 1 this week
no commentswrite comment
1 2 3 4 5
please rate
add to favorites
launch autoscroll
font size
0
reset
how to read this tab
guitar tuner
Autoscroll
slow
fast
+/-
esc
set tempo
stop
Help us to improve Ultimate-Guitar.com Take our survey!
×
I've seen my fate
Will Haven
El Diablo
tabber: mon.nom.est.thomas.martin@gmail.com

Tuning: B,F#,B,E,G#,C#


Intro:
Jeff make the chords ring at the top of the neck

Riff 1:
|----------------------|
|----------------------|
|---------------3333---|
|---00-00-00-00-1111---|
|---00-00-00-00-1111---|
|---00-00-00-00-1111---|
pm: .  .  .  .

Riff 2:
|----------------------------------|----------------------|
|----------------------------------|----------------------|
|-------1414141414b141414----------|---1313131313131313---|
|---000---------------------(x3)---|----------------------|
|---000-1212121212b121212----------|---1111111111111111---|
|---000-0-0-0-0-0--0-0-0-----------|----------------------|

Riff 3: "I've seen my fate"
|-------------------------------------------|
|-------------------------------------------|
|-------------------------------------------|
|-------------------------------------------|
|-------------------------------------------|
|---000-0011-1000-0011-1000-0011-1000-0011--|

Riff 4:
|-------------------|-----------------|
|-------------------|-----------------|
|---------151515/---|---7-7-7-7/8-8---|
|---0-0-0-----------|-----------------|
|---0-0-0-131313/---|---5-5-5-5/6-6---|
|---0-0-0--0-0-0/---|---0-0-0-0-0-0---|

Riff 5:
|-----------------------------|
|-----------------------------|
|---7-7-7-7-7-7-7-7-7-8-8-8---|
|-----------------------------|
|---5-5-5-5-5-5-5-5-5-6-6-6---|
|---0-0-0-0-0-0-0-0-0-0-0-0---|

Suggest correction
Give kudos to tab author, rate the tab!
1 2 3 4 5
comments
print report bad tab
guest
You may want to rate the tab now too:
select rating
Please do not post tabs as comments. Select "correction" instead!