Oops, an error
Loading. Please wait.

Miguel Encontro La Fe Otra Vez Tab

version 2
version 2

Whole song

78 views 1 this week
no commentswrite comment
1 2 3 4 5
please rate
add to favorites
launch autoscroll
font size
0
reset
how to read this tab
guitar tuner
Autoscroll
slow
fast
+/-
esc
set tempo
stop
Help us to improve Ultimate-Guitar.com Take our survey!
×
Contributor
Miguel encotro la fe otra vez
Will Haven
Carpe Diem

tabbed by mon.nom.est.thomas.martin@gmail.com

Tuning: B,F#,B,E,G#,C#


Riff 1:
|-------------------------------------|
|-------------------------------------|
|-------------------------------------|
|-------------------------------------|
|-------------------------------------|
|---1-1-1---1-1-1---1-1-1---1-1-1-0---|

 (00:17)
|-------------------------------------------|
|-------------------------------------------|
|-------------------------------------------|
|-------------------------------------------|
|-------------------------------------------|
|---6-6-6-0---6-6-6-0---6-6-6-0---6-6-6-0---|


Riff 2:
|-------------------------------------------|
|-------------------------------------------|
|-------------------------------------------|
|-------------------------------------------|
|-------------------------------------------|
|---6-6-6-0---6-6-6-0---6-6-6-0---6-6-6-0---|

|-------------------------------------------------------|
|-------------------------------------------------------|
|-------------------------------------------------------|
|-------------------------------------------------------|
|-------------------------------------------------------|
|---10-10-10-0---10-10-10-0---10-10-10-0---10-10-10-0---|

 (01:05)
|---------------------------------------------------------|
|---------------------------------------------------------|
|---------------------------------------------------------|
|---------------------------------------------------------|
|---------------------------------------------------------|
|---6-6-6-0---6-6-6-0---6-6-6-0---6-6-6-0---1-1-1-1-1-1---|


Riff 3:
|--------------------------|
|--------------------------|
|--------------------------|
|-----(x8)-----------------|
|--------------------------|
|---2-1-0-1-2b-----/6--0---|


 Riff 1 and let ring the last note:
|---------|
|---------|
|---------|
|---0-----|
|---0-----|
|---0-----|

Riff 4:
 gtr1
|----------------------------------------------|
|----------------------------------------------|
|---7777777777777771111166666666666666699999---|
|----------------------------------------------|
|---5555555555555559999944444444444444477777---|
|----------------------------------------------|
 gtr2
|----------------------------------------------|
|----------------------------------------------|
|----------------------------------------------|
|----------------------------------------------|
|---00---00---00---00---00---00---00---00------|
|---00---00---00---00---00---00---00---00------|
                                        ^let ring but the first time

Riff 5:
 the first one                and then
|----------------------------|--------------------------|
|---0------------------------|------0-------------------|
|---0let ring----------------|------0-------------------|
|---0------------------------|------0-------------------|
|----------------------------|--------------------------|
|---1-----------1--5--5--6\--|---1-------1-/5--5--6-\---|


Riff 6:
|----------------------------------------|
|----------------------------------------|
|----------------------------------------|
|----------------------------------------|
|----------------------------------------|
|---1-1-1-0--1-1-1-0--1-1-1-0--1-1-1-0---|


Riff 7:
|---------------------------------------------------|
|---------------------------------------------------|
|---------------------------------------------------|
|-----3*----3*----3*----3*----3*----3*--------------|
|---003*--003*--003*--003*--003*--003*--000---------|
|---00----003*--00----00----00----00----000-0-11\---|


Riff 8:
|--------------------------------------------------------------------|
|--------------------------------------------------------------------|
|--------------------------------------------------------------------|
|--------------------------------------------------------------------|
|---00--00--00--00--00--00--00--00--00--00--00--00--00--00--00--00---|
|---00--00--00--00--00--00--00--00--00--00--00--00--00--00--00--00---|
comments
We did not receive enough feedback on this tab! Please rate:
print report bad tab
1 2 3 4 5
I want to post or [tab]
guest
You may want to rate the tab now too:
select rating
Please do not post tabs as comments. Select "correction" instead!