Oops, an error
Loading. Please wait.

Moving To Montana Tab

179 views 1 this week
no commentswrite comment
1 2 3 4 5
please rate
add to favorites
launch autoscroll
font size
0
reset
how to read this tab
guitar tuner
Autoscroll
slow
fast
+/-
esc
set tempo
stop
Help us to improve Ultimate-Guitar.com Take our survey!
×
Moving to Montana
Will Haven
Carpe Diem

tab by mon.nom.est.thomas.martin@gmail.com

Tuning: B,F#,B,E,G#,C#

Riff 1:
|--------------------------------|
|--------------------------------|
|---7-7-7-7-7-7-7-7-7-7-7b7b7b---|
|---0-0-0-0-0-0------------------|
|---0-0-0-0-0-0-5-5-5-5-5b5b5b---|
|---0-0-0-0-0-0-0-0-0-0-0-0-0----|

Riff 2:
|--------------------------------------------------------------|
|--------------------------------------------------------------|
|--1010101010101010101010101010101010--------------------------|
|---8-8-8-0-0-0-8-8-8-0-0-0-8-8-8-0-0--------------------------|
|---8-8-8-0-0-0-8-8-8-0-0-0-8-8-8-0-0----------------------0---|
|---8-8-8-0-0-0-8-8-8-0-0-0-8-8-8-0-0--0-11-11\--0-11-11\--0---|

Riff 3:
|-----------------------------------------------------------|
|-----------------------------------------------------------|
|-----------------------------------------------------------|
|-----------------------------------------------------------|
|-----------------------------------------------------------|
|---0-0-0-0-0-0-0-0-0--11-11-11--0-0-0-0-0-0-0-0-0--8-8-8---|

Riff 4:
|-----------------------------------------------------------|
|-----------------------------------------------------------|
|---7-7-7-7-7-7-7-7-7------------7-7-7-7-7-7-7-7-7----------|
|-----------------------------------------------------------|
|---5-5-5-5-5-5-5-5-5--11-11-11--5-5-5-5-5-5-5-5-5--8-8-8---|
|---0-0-0-0-0-0-0-0-0--11-11-11--0-0-0-0-0-0-0-0-0--8-8-8---|

Riff 5:
|----------------------------------------------------------|
|--------------------------------(0)-----------(0)---------|
|-------------------------(0)----(0)----(0)----(0)---------|
|-------------------------(0)----(0)----(0)----(0)---------|
|----------------------------------------------------------|
|---8-8--8-8-8--8-8-8--8-8-8--8-8-8--8-8-8--8-8-8--8-8-8---|

Riff 6:
|--------------------------------------------|
|--------------------------------------------|
|--------------------------------------------|
|-----4---4----4---4----4---4--8-8-8-111111--|
|---1-1-0-0--1-1-0-0--1-1-0-0--5-5-5-8-8-8---|
|---1-1-0-0--1-1-0-0--1-1-0-0--5-5-5-8-8-8---|
Suggest correction
Give kudos to tab author, rate the tab!
1 2 3 4 5
comments
print report bad tab
guest
You may want to rate the tab now too:
select rating
Please do not post tabs as comments. Select "correction" instead!