Oops, an error
Loading. Please wait.

Scream And Shout Tab

version 1
version 1

Intro

Whole song

3,604 views 1 this week
no commentswrite comment
1 2 3 4 5
please rate
add to favorites
launch autoscroll
font size
0
reset
how to read this tab
guitar tuner
Autoscroll
slow
fast
+/-
esc
set tempo
stop
Help us to improve Ultimate-Guitar.com Take our survey!
×
Contributor
Difficulty
novice
Hey. Sorry that this tab is pretty short. It's my first one.  It's acurate though 
as far as I can tell.
The whole thing is power chords.
/  =  slide up

e----X-------X-------X--------X-------X-----X-----------------------------------------|
B----X-------X-------X--------X-------X-----X-----------------------------------------|
G----X-------X-------X--------X-------X-----X-----------------------------------------|
D----5-------10-------8-------3---/----8----10----------------------------------------|
A----5-------10-------8-------3---/----8----10----------------------------------------|
E----3--------8-------6-------1---/----6-----8----------------------------------------|
      x7      x1      x8     x7        x1    x8




e----X-------X--------X-------X--------X-----X---------------------------------------|
B----X-------X--------X-------X--------X-----X---------------------------------------|
G----X-------X--------X-------X--------X-----X---------------------------------------|
D----5-------10-------8-------3---/----8----10---------------------------------------|
A----5-------10-------8-------3---/----8----10---------------------------------------|
E----3--------8-------6-------1---/----6----8----------------------------------------|
     x7       x1      x8      x7       x1    x1



The second time though is the same as the first, but it ends on a single beat,
which needs to be muted quickly. (as it is in the song.)
comments
We did not receive enough feedback on this tab! Please rate:
print report bad tab
1 2 3 4 5
I want to post or [tab]
guest
You may want to rate the tab now too:
select rating
Please do not post tabs as comments. Select "correction" instead!