Oops, an error
Loading. Please wait.

Daisy Chains Tab

100 views 24 this week
no commentswrite comment
1 2 3 4 5
3 more votes to show rating
add to favorites
launch autoscroll
font size
0
reset
how to read this tab
guitar tuner
Autoscroll
slow
fast
+/-
esc
set tempo
stop
Help us to improve Ultimate-Guitar.com Take our survey!
×
Author
Difficulty
intermediate
About this tab version
I believe this is 100% accurate to the album and live version. Was this info helpful? Yes No
[Intro]
e|--12--12--12--12--12----10----10----------12--12--12--12--12--12-|
B|--12--12--12--12--12----12-------12-------12--12--12--12--12--12-|
G|--12--12--12--12--12----12----------12----12--12--12--12--12--12-|
D|-|-|-|-|---------------------------------------------------------|
A|-|-|-|-|---------------------------------------------------------|
E|-|-|-|-|---------------------------------------------------------|

e|--7--7--7--7--7----5--5-------7--7--7--7--7-----5----|   2x
B|--7--7--7--7--7----7----7-----7--7--7--7--7-----7----|
G|--7--7--7--7--7----7------7---7--7--7--7--7-----7----|
D|-|---------------------------------------------------|
A|-|---------------------------------------------------|
E|-|---------------------------------------------------|

[Verse]
e|--12--12--12--12--12----10----10----------12--12--12--12--12--12-|
B|--12--12--12--12--12----12-------12-------12--12--12--12--12--12-|
G|--12--12--12--12--12----12----------12----12--12--12--12--12--12-|
D|-|-|-|-|---------------------------------------------------------|
A|-|-|-|-|---------------------------------------------------------|
E|-|-|-|-|---------------------------------------------------------|

e|--7--7--7--7--7----5--5-------7--7--7--7--7-----5----|   2x
B|--7--7--7--7--7----7----7-----7--7--7--7--7-----7----|
G|--7--7--7--7--7----7------7---7--7--7--7--7-----7----|
D|-|---------------------------------------------------|
A|-|---------------------------------------------------|
E|-|---------------------------------------------------|

[Pre-Chorus]
e|----0-----------------0--|      (listen to the song for the strum pattern for these to chords)
B|----0-----------------0--|
G|----7-----------------7--|
D|----6-----------------5--|
A|----7-----------------7--|
E|----0-----------------0--|

[Chorus]
    G           B7  A  B7
e|--3--3--3-----7---5---7--|   4x   (listen to the song for the strum pattern for these to chords)
B|--3--3--3-----7---5---7--|
G|--4--4--4-----8---6---8--|
D|--5--5--5-----7---7---7--|
A|--5--5--5-----9---7---9--|
E|--3--3--3-----7---5---7--|

    G           G G               A           A A 
e|--3---7-------3-3---7-----------5---7-------5-5---7-------|  2x
B|--3-----7-----3-3-----7---------5-----7-----5-5-----7-----|
G|--4-------7---4-4-------7-------6-------7---6-6-------7---|
D|--5-----------5-5---------------7-----------7-7-----------|
A|--5-----------5-5---------------7-----------7-7-----------|
E|--3-----------3-3---------------5-----------5-5-----------|

[Outro]
e|--12--12--12--12--12----10--------------12--12--12--12--12--10----|   2x
B|--12--12--12--12--12----12--------------12--12--12--12--12--12----|
G|--12--12--12--12--12----12--------------12--12--12--12--12--12----|
D|-|-|-|-|----------------------------------------------------------|
A|-|-|-|-|----------------------------------------------------------|
E|-|-|-|-|----------------------------------------------------------|
Suggest correction
Give kudos to tab author, rate the tab!
1 2 3 4 5
comments
print report bad tab
guest
You may want to rate the tab now too:
select rating
Wanna post a correction for this tab? Suggest correction