Oops, an error
Loading. Please wait.

Hearse Chords

version 2
version 2

Whole song

  • ver 2 new
    Based on different live versions of this song, inc... Show more
10 views 10 this week
no commentswrite comment
1 2 3 4 5
3 more votes to show rating
add to favorites
launch autoscroll
font size
0
reset
transpose
0
reset
simplify chords
display chords
guitar tuner
Autoscroll
slow
fast
+/-
esc
set tempo
stop
Help us to improve Ultimate-Guitar.com Take our survey!
×
Author
Difficulty
Capo
intermediate
5th fret
About this tab version
Based on different live versions of this song, includes tab for the fingerpicked intro, contains correct lyrics. Was this info helpful? Yes No
Tuning: Standard
Capo:   5th Fret

[Note] Play Am7(vs1) in the verses and Am7(vs2) in the bridges.

   D6/F#   F   Am7   Am7   Am9/G   C   G   Dm7   F#dim   C6/G
e|--------(1)---------5------------3---3----5-------------5----|
B|--0-----(1)---1-----5-----1------5---3----6-------------5----|
G|--2------2----0-----5-----4------5---4----5-----x-------5----|
D|--0------3----2-----5-----2------5---5----7-----4-------5----|
A|--0------3----0-----7-----x------3---5----5-----3-------3----|
E|--2------1----------5-----3------3---3----5-----2-------3----|
               vs1   vs2

[Intro]
e|---------------------------------|-------------0-----------x-------|
B|---------------------------------|-------------0-----------x-------|
G|---------2---------------2-------|-------------------------x-------|
D|-----0---------------0-------0---|---------3---------------x-----2-|
A|---------------------------------|-----3-------------------x-------|
E|-2-------------------------------|-0h1---------------------x-------|

e|---------------------------------|---------------------------------|
B|-0h1-----------------1-----------|---------1-----------------------|
G|-----------------0-------0-------|---------4-----------------------|
D|-------------2---------------2---|-----2---------------------------|
A|-0-------------------------------|---------------------------------|
E|-------------------------------3-|---------------------------------|

[Verse]
D6/F#                   F
      I booked the hearse,
               Am7
I kept my head above the surface,
       Am9/G
Recited the verses perfect,
D6/F#                 F
      Button your purse,
                Am7
I watch your lipstick,
No words come out,
Am9/G
      What you thinking now?

[Chorus]
F             C              G
  I know it’s   not what you wanted,
         C            F
Probably not what you needed,
    C        G        C (short)
But baby I’m leaving,
F          C               G
  Feelings   so quickly forgotten,
          C        F
Well they had me believing,
    C        G        C (short)
Now baby I’m leaving,

[Verse]
D6/F#                          F
      Could you hold the milk?
                   Am7
I’ll take it black now,
                          Am9/G
But I can’t take you back now,
D6/F#                    F                
      So go pinch your bruises,
If you choose this,
Am7                              Am9/G
Try and make it look like I just cut you down,

[Chorus]
F             C              G
  I know it’s   not what you wanted,
         C            F
Probably not what you needed,
    C        G        C (short)
But baby I’m leaving,
F          C               G
  Feelings   so quickly forgotten,
          C        F
Well they had me believing,
    C        G
Now baby I’m leaving,

[Bridge]
C      Dm7
  Stone   cold,
Am7
Where did my feelings go?
C          Dm7                Am7
  Did they blow away with the wind?
         C      Dm7
You said   don’t   go,
Am7
   With those eyes that love me,
C           Dm7               Am7
  Well baby love me while you can,

[Chorus]
F             C              G
  I know it’s   not what you wanted,
         C            F
Probably not what you needed,
    C        G        C (short)
But baby I’m leaving,
F          C               G
  Feelings   so quickly forgotten,
          C        F
Well they had me believing,
    C        G
Now baby I’m leaving,

[Bridge]
C      Dm7
  Stone   cold,
Am7
Where did my feelings go?
C          Dm7                Am7
  Did they blow away with the wind?
    G    F       C
You said   don’t   go,
G                      C
  With those eyes that love me,
F           C                 G
  Well baby love me while you can,

            F#dim           F
Why are you calling me now?   ooh

C6/G

************************************

| h   Hammer-on
| x   Mute note
| ()  Gost note

************************************
Suggest correction
Give kudos to tab author, rate the tab!
1 2 3 4 5
comments
print report bad tab
guest
You may want to rate the tab now too:
select rating
Wanna post a correction for this tab? Suggest correction