Oops, an error
Loading. Please wait.

Do You Love Where You Tab

7 views 1 this week
no commentswrite comment
1 2 3 4 5
3 more votes to show rating
add to favorites
launch autoscroll
font size
0
reset
how to read this tab
guitar tuner
Autoscroll
slow
fast
+/-
esc
set tempo
stop
Help us to improve Ultimate-Guitar.com Take our survey!
×
Author
Difficulty
advanced
About this tab version
This is the original version of my tab. Was this info helpful? Yes No
Will Stratton - "Do You Love Where You Live" 
Version played on WNYC's Spinning On Air
https://www.youtube.com/watch?v=_IbGBBV_1hQ

Will tunes his guitar very low to A E B E F# G# and uses a capo on the 4th fret

I prefer to tune to C G D G A B and use a capo on the 1st, so I can keep my guitar tuned similarly to open C,
but you can also just use the tuning shown below

~~~~~~~~~~~~~~~~~~~~~~~~~~~~~~~~~~~~~~~~~~~~~~~~~~~~~~~~~~~~~~~~~~~~~~~~~~~~~~~~~~~~~~~~~~~~~~~~~~~~~~~~~~~~~~
[Intro]

Lines 1, 2, and 4 are played with the end of the index finger holding down all three bottom strings
Be careful not to let the index finger dampen the high G# string

Suggested strum-hand fingerings shown below first line

At the end of each time through the verse, slide from the 2nd fret on the 6th string up to the 7th fret

Play 2x

C |--------------------------------|--------------------------------|
A#|--------------------------------|--------------------------------|
G#|--------------0-----------0-----|--------------0-----------0-----|
D#|--------7h9-------7-----7-----7-|--------7h9-------7-----7-----7-|
G#|--------7-------7---7h9---------|--7-----7-------7---7h9---------|
C#|7---7-------7---------------7---|7---7-------7---------------7---|
   
           i     m   i       i   i    i     i     m   i       i   i
   t   t   t   t   t   t   t   t    t   t   t   t   t   t   t   t 

C |--------------------------------|--------------------------------|
A#|--------------------------------|--------------------------------|
G#|--------------0-----------0-----|--------------0-----------0-----|
D#|--------5h7-------5-----5-----5-|--------5h7-------5-----5-----0-|
G#|--5-----5-------5---5h7---------|--5-----5-------5---5h7---------|
C#|5---5-------5---------------5---|5---5-------5---------------0---|

C |----------------------0---------|----------------------0---------|
A#|------------------0-------0-----|------------------0-------0-----|
G#|--------------7---------------7-|--------------7-----------------|
D#|--------10----------------------|--10----10--------------------10|
G#|--0-----9-------9-------9-------|--------9-------9-------9-------|
C#|0---0-------0-------0-------0---|0---0-------0-------0-------0---|

                                    1st time through                 2nd time through                       
C |--------------------------------|----------------------0---------|----------------------0---------|
A#|------------------0-------------|------------------0-------------|------------------0-------------|
G#|--------------0-----------0-----|--------------0-----------------|--------------0-----------------|
D#|--------0h2-----------4-------2-|--------2***h4------------------|--------2h4---------------------|
G#|--------4-------4-------4-------|--------2-------2-------2-------|--------2-------2-------2-------|
C#|4---4-------4-------4-------4---|2---2-------2-------2-------2--/|2---2-------2-------2-------2--/|

*Triplet Riff Played 1st Time
C |-----
A#|-----
G#|-----
D#|2h4p2
G#|2----
C#|-----
 

[Verse]

Same as Intro but no triplet riff at end

Play 2x

C |--------------------------------|--------------------------------|
A#|--------------------------------|--------------------------------|
G#|--------------0-----------0-----|--------------0-----------0-----|
D#|--------7h9-------7-----7-----7-|--------7h9-------7-----7-----7-|
G#|--------7-------7---7h9---------|--7-----7-------7---7h9---------|
C#|7---7-------7---------------7---|7---7-------7---------------7---|

C |--------------------------------|--------------------------------|
A#|--------------------------------|--------------------------------|
G#|--------------0-----------0-----|--------------0-----------0-----|
D#|--------5h7-------5-----5-----5-|--------5h7-------5-----5-----0-|
G#|--5-----5-------5---5h7---------|--5-----5-------5---5h7---------|
C#|5---5-------5---------------5---|5---5-------5---------------0---|

C |----------------------0---------|----------------------0---------|
A#|------------------0-------0-----|------------------0-------0-----|
G#|--------------7---------------7-|--------------7-----------------|
D#|--------10----------------------|--10----10--------------------10|
G#|--0-----9-------9-------9-------|--------9-------9-------9-------|
C#|0---0-------0-------0-------0---|0---0-------0-------0-------0---|
                                               
C |--------------------------------|----------------------0---------|
A#|------------------0-------------|------------------0-------------|
G#|--------------0-----------0-----|--------------0-----------------|
D#|--------0h2-----------4-------2-|--------2h4---------------------|
G#|--------4-------4-------4-------|--------2-------2-------2-------|
C#|4---4-------4-------4-------4---|2---2-------2-------2-------2--/|


[Chorus/Section 2]

At the end of each time through the Chorus, slide from the 2nd fret on the 6th string up to the 5th fret

Play 2x

C |--------------6-----------------|--------------6-----------------|
A#|--------7p0-------0-------------|--------7p0-------0-------------|
G#|----------------------0---------|----------------------0---------|
D#|--------5-------5---------5-----|--------5-------5---------5-----|
G#|------------5-------5---5-----5-|------------5-------5---5-----5-|
C#|5---5-----------------------5---|5---5-----------------------5---|

C |--------------5-----------------|--------------5-----------------|
A#|--------5p0-------0-------------|--------5p0-------0-------------|
G#|----------------------0---------|----------------------0---------|
D#|--------4-------4---------4-----|--------4-------4---------4-----|
G#|------------4-------4---4-----4-|------------4-------4---4-----4-|
C#|4---4-----------------------4---|4---4-----------------------4---|

C |--------------3-----------------|--------------3-----------------|  
A#|--------3p0-------0-------------|--------3p0-------0-------------|  
G#|----------------------0---------|----------------------0---------|
D#|--------3-------3---------3-----|--------3-------3---------3-----|
G#|------------3-------3---3-----3-|------------3-------3---3-----3-|  Switch to middle finger holding down
C#|3---3-----------------------3---|3---3-----------------------3---|  bottom three strings on this one

C |--------------3-----------------|--------------0-----------------|  
A#|--------3p0-------0-------------|--------3p0-------0-------------| 
G#|----------------------0---------|----------------------0---------|
D#|--------2-------2---------2-----|--------2-------4---------4-----|
G#|------------2-------2---2-----2-|------------2-----------------2-|  Switch back to index finger
C#|2---2-----------------------2---|2---2---------------2---2---2--/|


[Post-Chorus]

Same as Verse

Play 2x

C |--------------------------------|--------------------------------|
A#|--------------------------------|--------------------------------|
G#|--------------0-----------0-----|--------------0-----------0-----|
D#|--------7h9-------7-----7-----7-|--------7h9-------7-----7-----7-|
G#|--------7-------7---7h9---------|--7-----7-------7---7h9---------|
C#|7---7-------7---------------7---|7---7-------7---------------7---|

C |--------------------------------|--------------------------------|
A#|--------------------------------|--------------------------------|
G#|--------------0-----------0-----|--------------0-----------0-----|
D#|--------5h7-------5-----5-----5-|--------5h7-------5-----5-----0-|
G#|--5-----5-------5---5h7---------|--5-----5-------5---5h7---------|
C#|5---5-------5---------------5---|5---5-------5---------------0---|

C |----------------------0---------|----------------------0---------|
A#|------------------0-------0-----|------------------0-------0-----|
G#|--------------7---------------7-|--------------7-----------------|
D#|--------10----------------------|--10----10--------------------10|
G#|--0-----9-------9-------9-------|--------9-------9-------9-------|
C#|0---0-------0-------0-------0---|0---0-------0-------0-------0---|
                                                      
C |--------------------------------|----------------------0---------|
A#|------------------0-------------|------------------0-------------|
G#|--------------0-----------0-----|--------------0-----------------|
D#|--------0h2-----------4-------2-|--------2h4---------------------|
G#|--------4-------4-------4-------|--------2-------2-------2-------|
C#|4---4-------4-------4-------4---|2---2-------2-------2-------2--/|


[Verse]

Same as before

Play 2x

C |--------------------------------|--------------------------------|
A#|--------------------------------|--------------------------------|
G#|--------------0-----------0-----|--------------0-----------0-----|
D#|--------7h9-------7-----7-----7-|--------7h9-------7-----7-----7-|
G#|--------7-------7---7h9---------|--7-----7-------7---7h9---------|
C#|7---7-------7---------------7---|7---7-------7---------------7---|

C |--------------------------------|--------------------------------|
A#|--------------------------------|--------------------------------|
G#|--------------0-----------0-----|--------------0-----------0-----|
D#|--------5h7-------5-----5-----5-|--------5h7-------5-----5-----0-|
G#|--5-----5-------5---5h7---------|--5-----5-------5---5h7---------|
C#|5---5-------5---------------5---|5---5-------5---------------0---|

C |----------------------0---------|----------------------0---------|
A#|------------------0-------0-----|------------------0-------0-----|
G#|--------------7---------------7-|--------------7-----------------|
D#|--------10----------------------|--10----10--------------------10|
G#|--0-----9-------9-------9-------|--------9-------9-------9-------|
C#|0---0-------0-------0-------0---|0---0-------0-------0-------0---|
                                                      
C |--------------------------------|----------------------0---------|
A#|------------------0-------------|------------------0-------------|
G#|--------------0-----------0-----|--------------0-----------------|
D#|--------0h2-----------4-------2-|--------2h4---------------------|
G#|--------4-------4-------4-------|--------2-------2-------2-------|
C#|4---4-------4-------4-------4---|2---2-------2-------2-------2--/|


[Chorus/Section 2]

Same as before

Play 2x

C |--------------6-----------------|--------------6-----------------|
A#|--------7p0-------0-------------|--------7p0-------0-------------|
G#|----------------------0---------|----------------------0---------|
D#|--------5-------5---------5-----|--------5-------5---------5-----|
G#|------------5-------5---5-----5-|------------5-------5---5-----5-|
C#|5---5-----------------------5---|5---5-----------------------5---|

C |--------------5-----------------|--------------5-----------------|
A#|--------5p0-------0-------------|--------5p0-------0-------------|
G#|----------------------0---------|----------------------0---------|
D#|--------4-------4---------4-----|--------4-------4---------4-----|
G#|------------4-------4---4-----4-|------------4-------4---4-----4-|
C#|4---4-----------------------4---|4---4-----------------------4---|

C |--------------3-----------------|--------------3-----------------|  
A#|--------3p0-------0-------------|--------3p0-------0-------------|  
G#|----------------------0---------|----------------------0---------|
D#|--------3-------3---------3-----|--------3-------3---------3-----|
G#|------------3-------3---3-----3-|------------3-------3---3-----3-|  Switch to middle finger holding down
C#|3---3-----------------------3---|3---3-----------------------3---|  bottom three strings on this one

C |--------------3-----------------|--------------0-----------------|  
A#|--------3p0-------0-------------|--------3p0-------0-------------| 
G#|----------------------0---------|----------------------0---------|
D#|--------2-------2---------2-----|--------2-------4---------4-----|
G#|------------2-------2---2-----2-|------------2-----------------2-|  Switch back to index finger
C#|2---2-----------------------2---|2---2---------------2---2---2--/|


[Outro]

C |--------------3-----------------|--------------0-----------------|  
A#|--------3p0-------0-------------|--------3p0-------0-------------| 
G#|----------------------0---------|----------------------0---------|
D#|--------2-------2---------2-----|--------2-------4---------4-----|
G#|------------2-------2---2-----2-|------------2-------2---2-----2-| 
C#|2---2-----------------------2---|2---2-----------------------2---|

C |--------------3-----------------|--------------0-----------------|  
A#|--------3p0-------0-------------|--------3p0-------0-------------| 
G#|----------------------0---------|----------------------0---------|
D#|--------2-------2---------2-----|--------2-------4---------4-----|
G#|------------2-------2---2-----2-|------------2-------2---2-----2-| 
C#|2---2-----------------------2---|2---2-----------------------2---|

C |--0---------------0-------------|--------------------------------|  
A#|------0---------------0---------|--------------------------------| 
G#|----------0---------------0-----|--------------------------------|
D#|----4---------4-----4---------4-|--------------------------------|
G#|--------------------------------|--------------------------------| 
C#|2-------2---2---2-------2---2---|2~~~~~~~~~~~~~~~~~~~~~~~~~~~~~~~|


***********************************
| /   Slide up
| h   Hummer-on
| p   Pull-off
| ~   Let ring
***********************************



Suggest correction
Give kudos to tab author, rate the tab!
1 2 3 4 5
comments
print report bad tab
guest
You may want to rate the tab now too:
select rating
Wanna post a correction for this tab? Suggest correction