Oops, an error
Loading. Please wait.

Leave Right Now Tab

7,954 views 1 this week
no commentswrite comment
1 2 3 4 5
x 3
add to favorites
launch autoscroll
font size
0
reset
how to read this tab
guitar tuner
×
Best way to learn
"Leave Right Now"
Autoscroll
slow
fast
+/-
esc
set tempo
stop
Capo
1st fret
Capo 1st fret
Intro
e|------1------------------------------1---------1--------0----------------|
b|------1--1-h-3---1------------------3---------3--------1----1------------|
g|------2--2-h-3---2---------2-------3---------2--------0-----------0------|
d|------3-------------------3-------3---------0--------2-------------------|
a|------3------------------3-----------------------------------------------|
e|---1--1------------------------------------------------------------------|

Verse
e|------1------------------------------1---------1--------0----------------|
b|------1--1-h-3---1------------------3---------3--------1----1------------|
g|------2--2-h-3---2---------2-------3---------2--------0-----------0------|
d|------3-------------------3-------3---------0--------2-------------------|
a|------3------------------3-----------------------------------------------|
e|---1--1------------------------------------------------------------------|



Bridge 

e|--------------1--------------0-------------1-----------1-------------0--|
b|----------3--------------1-------------3-----------3-------------1------|
g|-------3--------------2-------------3-----------2-------------0---------|
d|---3--------------2-------------3-----------0-------------2-------------|
a|------------------------------------------------------------------------|
e|------------------------------------------------------------------------|

Chorus  (listen to song for strumming pattern)
e|-----1--------------------0-----------------0--------------------1--|
b|-----3--------------------1-----------------1--------------------1--|
g|-----3--------------------0-----------------2--------------------2--|
d|-----3-------------------2------------------2--------------------3--|   X3
a|-----1-------------------3------------------0--------------------3--|
e|-----1-------------------3------------------1--------------------1--|
       Bb                  C                  Am                   F


e|----1--------0------1-----------------------------------|
b|----3--------1------1-----------------------------------|
g|----3--------0------2-----------------------------------|
d|----3--------2------3-----------------------------------|
a|----1--------3------3-----------------------------------|
e|----1--------3------1-----------------------------------|
     Bb        C      F


Verse
Bridge
Chorus

Interlude
Dm   C   Bb  Am  F
Dm   C   F     Am  F

Repeat Chorus  (listen to song and repeat chorus with slight variations, u will
easily work them out by listening to song)

Lyrics and Chords

Intro

Verse
       F      Bb           F    
I’m here, just like I said
                    Bb      Dm            C
Though it’s breaking every rule I ever made
       F          Bb          F
My racing heart, is just the same
     Bb               Dm                C
Why make it strong to break it once again

Bridge
Bb                              Am
          And I’d love to say I do
		   Bb
Give everything to you
		      Dm
But I can never now be true
C
So I say

Chorus
Bb                   C         Am 
I think I’d better leave right now
	F
Before I fall any deeper
Bb                   C         Am 
I think I’d better leave right now
	F
Feeling weaker and weaker
Bb	         C       Am
Somebody better show me how
	F
Before I fall any deeper
Bb                  C           F
I thing I’d better leave right now

Verse
        F      Bb        F
I’m here, so please explain
               Bb         Dm             C
Why you’re opening up a healing wound again
		       F   Bb            F
I’m a little more careful, perhaps it shows
          Bb                 Dm                 C
But if I lose the highs at least I’m spared the lows

Bridge
Bb                               Am
          Now I tremble in your arms
		Bb
What could be the harm
                   Dm
To feel my spirit come
C
So I say

Chorus
Bb                   C         Am 
I think I’d better leave right now
	F
Before I fall any deeper
Bb                  C           Am 
I think I’d better leave right now
	F
Feeling weaker and weaker
Bb	          C     Am
Somebody better show me how
	F
Before I fall any deeper
Bb                   C          Dm
I thing I’d better leave right now

Interllude
Dm
     I wouldn’t know how to say
C
    How can it feel seeing you today
Bb
     I see you got your smile back
Am                                F
   Like you say you’re right on track but
Dm
   You may never know why
C
   Once bit and twice is shy
F
   If I frown perhaps I should explain
Am                      F
  I can’t bear to lose you again

Repeat chorus till end
Suggest correction
Give kudos to tab author, rate the tab!
1 2 3 4 5
comments
print report bad tab
guest
You may want to rate the tab now too:
select rating
Wanna post a correction for this tab? Suggest correction