Oops, an error
Loading. Please wait.

Drug Lord Bass Tab

version 1
version 1

Whole song

  • First bass tab for this song. Pretty simple and pr... Show more

Interactive

7 views 1 this week
no commentswrite comment
1 2 3 4 5
3 more votes to show rating
add to favorites
launch autoscroll
font size
0
reset
guitar tuner
Autoscroll
slow
fast
+/-
esc
set tempo
stop
Help us to improve Ultimate-Guitar.com Take our survey!
×
Author
Difficulty
Tuning
novice
D A D G B E
About this tab version
First bass tab for this song. Pretty simple and pretty fun if you're not looking for anything too difficult. It's kind of short because a lot of the song has no bass, for example the intro, outro, and one or two verses that guitar has. Anyway, hope you enjoy it. Was this info helpful? Yes No
[No bass in Intro]


[Verse 1]

G|---------------------------------------------------------------------------|
D|---------------------------------------------------------------------------|
A|---------------------------------------------------------------------------|
D|---8-8-8-8----8-8-8-8----3-3-3-3----3-3-3-3--------------------------------|(x4)


[Verse 2]

G|--------------------------------------------------------------------------------------|
D|--------------------------------------------------------------------------------------|
A|--------------------------------------------------------------------------------------|
D|---12-12-12-12--12-12--10-10-10-10--10-10--3-3-3-3--3-3--5-5-5-5--5-5-----------------|


[Verse 3]

G|---------------------------------------------------------------------------|
D|---------------------------------------------------------------------------|
A|---------------------------------------------------------------------------|
D|---8-8--8-8-8--8-8-8--8-8-8--5-5--5-5-5--3-3--3-3-3------------------------|(x4)

G|---------------------------------------------------------------------------|
D|---------------------------------------------------------------------------|
A|---------------------------------------------------------------------------|
D|---8-8-8-8--8-8-8-8--3-3-3-3--3-3-3-3--------------------------------------|(x2)
Suggest correction
Give kudos to tab author, rate the tab!
1 2 3 4 5
comments
print report bad tab
guest
You may want to rate the tab now too:
select rating
Wanna post a correction for this tab? Suggest correction