Oops, an error
Loading. Please wait.

Blues Hoss Flat tab

757 views 3 this week
no commentswrite comment
1 2 3 4 5
2 more votes to show rating
add to favorites
×
Save as Personal and add changes to this tab that will be seen only by you. Learn more ›
×
You can save this tab as Personal to edit and correct it or add notes. All changes will be seen only by you. Learn more »
launch autoscroll
font size
0
reset
how to read this tab
guitar tuner
edit
Autoscroll
slow
fast
+/-
esc
set tempo
stop
Author
Difficulty
Blues Hoss Flat

  1                  2                        3                  4
E|------------------|------------------------|------------------|------------------------|
B|------------------|------------------------|------------------|------------------------|
G|------------------|------------------------|------------------|------------------------|
D|------------------|------------------------|------------------|------------------------|
A|--7----7--7----7--|--7--7----7----------7--|--7----7--7----7--|--7--7----7----------7--|
E|------------------|---------------7--8-----|------------------|---------------7--8-----|

  5                  6                        7                  8
E|------------------|------------------------|------------------|------------------|
B|------------------|------------------------|------------------|------------------|
G|------------------|------------------------|------------------|------------------|
D|------------------|------------------------|------------------|------------------|
A|--7----7--7----7--|--7--7----7----------7--|--7----7--7----7--|--7--7----7-------|
E|------------------|---------------7--8-----|------------------|---------------7--|

  9              10              11             12
E|--------------|---------------|--------------|--------------|
B|--8--4--8--8--|--4--8--9---6--|--8--4--8--6--|--8--4--8--5--|
G|--7--5--7--7--|--5--7--8---7--|--7--5--7--7--|--7--5--7--6--|
D|--8--5--8--8--|--5--8--10--7--|--8--5--8--6--|--8--5--8--6--|
A|--6-----6--6--|-----6--8------|--6-----6-----|--6-----6-----|
E|-----4--------|--4---------6--|-----4-----6--|-----4-----5--|

  13             14              15             16
E|--------------|---------------|--------------|--------------|
B|--4--4--4--4--|--4--4--9---6--|--8--4--8--6--|--8--4--8--8--|
G|--5--5--5--5--|--5--5--8---7--|--7--5--7--7--|--7--5--7--7--|
D|--5--5--5--5--|--5--5--10--7--|--8--5--8--6--|--8--5--8--8--|
A|--------------|--------8------|--6-----6-----|--6-----6--6--|
E|--4--4--4--4--|--4--4------6--|-----4-----6--|-----4--------|

  17                 18                19             20
E|------------------|--------------8--|--------------|-----------9--|
B|--9---11------11--|--9---11------9--|--8--4--8--6--|--8--4--8--6--|
G|--8---10--12--10--|--8---10--12--8--|--7--5--7--7--|--7--5--7--7--|
D|--10--12--10--12--|--10--12--10--8--|--8--5--8--7--|--8--5--8--6--|
A|--8---10--11--10--|--8---10--11-----|--6--6--6-----|--6-----6-----|
E|------------------|-----------------|-----4-----6--|-----4--------|

  21             22              23             24
E|--------------|---------------|--------------|--------------|
B|--8--4--8--8--|--4--8--9---6--|--8--4--8--6--|--8--4--8--5--|
G|--7--5--7--7--|--5--7--8---7--|--7--5--7--7--|--7--5--7--6--|
D|--8--5--8--8--|--5--8--10--7--|--8--5--8--6--|--8--5--8--6--|
A|--6-----6--6--|-----6--8------|--6-----6-----|--6-----6-----|
E|-----4--------|--4---------6--|-----4-----6--|-----4-----5--|

  25             26              27             28
E|--------------|---------------|--------------|--------------|
B|--4--4--4--4--|--4--4--9---6--|--8--4--8--6--|--8--4--8--8--|
G|--5--5--5--5--|--5--5--8---7--|--7--5--7--7--|--7--5--7--7--|
D|--5--5--5--5--|--5--5--10--7--|--8--5--8--6--|--8--5--8--8--|
A|--------------|--------8------|--6-----6-----|--6-----6--6--|
E|--4--4--4--4--|--4--4------6--|-----4-----6--|-----4--------|

  29                 30                31             32
E|------------------|--------------8--|--------------|-----------9--|
B|--9---11------11--|--9---11------9--|--8--4--8--6--|--8--4--8--6--|
G|--8---10--12--10--|--8---10--12--8--|--7--5--7--7--|--7--5--7--7--|
D|--10--12--10--12--|--10--12--10--8--|--8--5--8--7--|--8--5--8--6--|
A|--8---10--11--10--|--8---10--11-----|--6--6--6-----|--6-----6-----|
E|------------------|-----------------|-----4-----6--|-----4--------|

  33             34             35             36             37
E|--------------|--------------|--------------|--------------|--------------|
B|--8--8--8--8--|--4--3--4--3--|--8--8--8--8--|--8--8--8--5--|--4--4--4--4--|
G|--7--7--7--7--|--5--4--5--5--|--7--7--7--7--|--7--7--7--6--|--5--5--5--5--|
D|--8--8--8--8--|--5--3--5--4--|--8--8--8--8--|--8--8--8--6--|--5--5--5--5--|
A|--6--6--6--6--|-----------5--|--6--6--6--6--|--6--6--6-----|--------------|
E|--------------|--4--3--4-----|--------------|-----------5--|--4--4--4--4--|

  38             39             40             41                 42
E|--------------|--------------|--------------|------------------|--------------|
B|--4--3--4--3--|--8--8--4--4--|--6--6--4--4--|--9---9---9---9---|--6--5--6--3--|
G|--5--4--5--5--|--7--7--5--5--|--5--5--3--3--|--8---8---8---8---|--7--6--7--5--|
D|--5--3--5--4--|--8--8--4--4--|--6--5--2--2--|--10--10--10--10--|--7--6--7--4--|
A|-----------5--|--6--6--5--5--|--4--4--3-----|--8---8---8---8---|-----------5--|
E|--4--3--4-----|--------------|-----------2--|------------------|--6--5--6-----|

  43             44                45             46             47
E|--------------|-----------3--1--|--1--1--1--1--|--------------|--------------|
B|--8--8--4--4--|--------3--0--2--|--2--2--2--2--|--4--4--4--4--|--8--8--8--8--|
G|--7--7--3--3--|--0--0--2--1--0--|--0--0--0--0--|--5--5--5--5--|--7--7--7--7--|
D|--8--8--2--2--|--1--1--3--0--1--|--1--1--1--1--|--5--5--5--5--|--8--8--8--8--|
A|--6--6--------|--0--0--1--------|--------------|--------------|--6--6--6--6--|
E|--------2--2--|--1--1-----------|--------------|--4--4--4--4--|--------------|

  48             49             50             51             52             53
E|--------------|--------------|--------------|--------------|--------------|------------------|
B|--8--8--8--8--|--4--4--4--4--|--4--4--4--4--|--8--8--8--8--|--8--8--8--8--|--10--10--10--10--|
G|--7--7--7--7--|--5--5--5--5--|--5--5--5--5--|--7--7--7--7--|--7--7--7--7--|--9---9---9---9---|
D|--8--8--8--8--|--5--5--5--5--|--5--5--5--5--|--8--8--8--8--|--8--8--8--8--|--10--10--10--10--|
A|--6--6--6--6--|--------------|--------------|--6--6--6--6--|--6--6--6--6--|--8---8---8---8---|
E|--------------|--4--4--4--4--|--4--4--4--4--|--------------|--------------|------------------|

  54             55             56             57             58
E|--------------|--------------|--------------|--------------|--------------|
B|--6--6--6--6--|--8--8--8--8--|--8--8--8--8--|--8--8--8--8--|--4--4--4--4--|
G|--7--7--7--7--|--7--7--7--7--|--7--7--7--7--|--7--7--7--7--|--5--5--5--5--|
D|--7--7--7--7--|--8--8--8--8--|--8--8--8--8--|--8--8--8--8--|--5--5--5--5--|
A|--------------|--6--6--6--6--|--6--6--6--6--|--6--6--6--6--|--------------|
E|--6--6--6--6--|--------------|--------------|--------------|--4--4--4--4--|

  59             60             61             62             63             64
E|--------------|--------------|--------------|--------------|--------------|--------------|
B|--8--8--8--8--|--8--8--8--8--|--4--4--4--4--|--4--4--4--4--|--8--8--8--8--|--8--8--8--8--|
G|--7--7--7--7--|--7--7--7--7--|--5--5--5--5--|--5--5--5--5--|--7--7--7--7--|--7--7--7--7--|
D|--8--8--8--8--|--8--8--8--8--|--5--5--5--5--|--5--5--5--5--|--8--8--8--8--|--8--8--8--8--|
A|--6--6--6--6--|--6--6--6--6--|--------------|--------------|--6--6--6--6--|--6--6--6--6--|
E|--------------|--------------|--4--4--4--4--|--4--4--4--4--|--------------|--------------|

  65                 66             67             68
E|------------------|--------------|--------------|-----------------------|
B|--9---9---9---9---|--6--6--6--6--|--8--8--8--8--|--8--8--9--9--8--8--6--|
G|--8---8---8---8---|--7--7--7--7--|--7--7--7--7--|--7--7--8--8--7--7--6--|
D|--10--10--10--10--|--7--7--7--7--|--8--8--8--8--|--8--8--7--7--6--6--5--|
A|--8---8---8---8---|--------------|--6--6--6--6--|--6--6--8--8--7--7--6--|
E|------------------|--6--6--6--6--|--------------|-----------------------|

  69             70                71             72
E|--------------|-----------------|--------------|--------9--5-----|
B|--6--6--6--7--|--6--6--7--8--6--|--6--6--6--6--|--6--6--6--0--6--|
G|--6--6--6--6--|--5--5--6--7--6--|--6--6--6--6--|--6--6--7--0--5--|
D|--5--5--5--5--|--4--4--5--6--5--|--5--5--5--5--|--5--5--6--0--4--|
A|--6--6--6-----|--------------6--|--6--6--6--6--|--6--6-----2-----|
E|-----------5--|--4--4--5--6-----|--------------|--------------4--|

 73              74                75             76
E|--------------|-----------------|--------------|--------------4--|
B|--6--6--6--7--|--6--6--7--8--6--|--6--6--6--6--|--6--6--5--2--1--|
G|--5--5--5--6--|--5--5--6--7--6--|--6--6--6--6--|--6--6--4--3--2--|
D|--4--4--4--5--|--4--4--5--6--5--|--5--5--5--5--|--5--5--3--2--1--|
A|--------------|--------------6--|--6--6--6--6--|--6--6-----------|
E|--4--4--4--5--|--4--4--5--6-----|--------------|--------3--2-----|

 77              78                79             80
E|--4--4--4--4--|--3--3-----------|--------------|--------------|
B|--1--1--1--2--|--1--1--7--8--6--|--6--6--6--6--|--6--6--6--6--|
G|--2--2--2--2--|--1--1--6--7--6--|--6--6--6--6--|--6--6--6--7--|
D|--1--1--1--1--|--0--0--5--6--5--|--5--5--5--5--|--5--5--5--6--|
A|-----------2--|--1--1--------6--|--6--6--6--6--|--6--6--6-----|
E|--------------|--------5--6-----|--------------|-----------6--|

  81                82             83    84
E|--------------6--|--2-----------|--8--|--|
B|--8--8--6--6--6--|--3--9--8--6--|--8--|--|
G|--7--7--5--5--4--|--3--8--7--6--|--6--|--|
D|--8--8--4--4--6--|-----7--6--5--|--7--|--|
A|--6--6--5--5--4--|--3--------6--|--6--|--|
E|-----------------|-----7--6-----|-----|--|

            
            
Suggest correction
Creating personal tab
Creating personal tab
You can edit any tab online and save it as your Personal.

You can edit, replace or remove any tab part or add personal notes – all changes will be seen only by you.

Personal tabs can be accessed anytime from any device, even offline.
Learn more »
Give kudos to tab author, rate the tab!
1 2 3 4 5
comments
print report bad tab
guest
You may want to rate the tab now too:
select rating
Wanna post a correction for this tab? Suggest correction