Oops, an error
Loading. Please wait.

Its Not True tab

version 4
version 4

Whole song

67 views 3 this week
no commentswrite comment
1 2 3 4 5
3 more votes to show rating
add to favorites
×
Save as Personal and add changes to this tab that will be seen only by you. Learn more ›
×
You can save this tab as Personal to edit and correct it or add notes. All changes will be seen only by you. Learn more »
launch autoscroll
font size
0
reset
how to read this tab
guitar tuner
edit
Autoscroll
slow
fast
+/-
esc
set tempo
stop
This is the album version.

[Intro]
    C/E9th            C                     Dm                C/E9th
e|-----------------|--------------0------|----------1------|------------------------|
B|----------1------|----------1----------|------3-------3--|--------------1---------|
G|------0-------0--|------0-----------0--|----2-------2----|------0---2--------(2)--|
D|----3-------3----|----2-------2---2----|--0-----0--------|--3-----3---3---(3)-----|
A|--1-----1--------|--3-----3------------|-----------------|------------------------|
E|-----------------|---------------------|-----------------|------------------------|

The rest of the song after the first verse is layered with another guitar, but the intro
riff continues in the [Verse].

[Verse]
    C/E9th            C                     Dm                C/E9th
e|-----------------|--------------0------|----------1------|------------------------|
B|----------1------|----------1----------|------3-------3--|--------------1---------|
G|------0-------0--|------0-----------0--|----2-------2----|------0---2--------(2)--|
D|----3-------3----|----2-------2---2----|--0-----0--------|--3-----3---3---(3)-----|
A|--1-----1--------|--3-----3------------|-----------------|------------------------|
E|-----------------|---------------------|-----------------|------------------------|

Should I decide it's true
That you might leave if given half the chance to go
And I'd be left here on my own
To find myself in bed
Wishing everything that changed would be the same

The room still looks like you
It's a mess and all the pictures on the shelf
Are dusted off by someone else
To keep me company
I haven't told her that your thought still lingers on

[Chorus]
C:         Bb:
e|-0-|     e|-1-| 
B|-1-|     B|-3-|
G|-0-|     G|-3-|
D|-2-|     D|-3-|
A|-3-|     A|-1-|
E|-X-|     E|-X-|

C              Bb                         C
Every day is another chance to bury my regret
C              Bb                            C
Every day is another chance to make it but I can't
C
But I can't, but I can't...

[Verse]
    C/E9th            C                     Dm                C/E9th
e|-----------------|--------------0------|----------1------|------------------------|
B|----------1------|----------1----------|------3-------3--|--------------1---------|
G|------0-------0--|------0-----------0--|----2-------2----|------0---2--------(2)--|
D|----3-------3----|----2-------2---2----|--0-----0--------|--3-----3---3---(3)-----|
A|--1-----1--------|--3-----3------------|-----------------|------------------------|
E|-----------------|---------------------|-----------------|------------------------|

I saw you on my phone
On a contact list that isn't up to date
I would have changed it with more time
That I require to
Rid my mind of all the freckles on your face

And reconcile to what
The ring I bought you is buried deep within the ground
Behind the swing where we first met
And memory only serves
To remind of all the bruises you forgave

[Chorus]
C:         Bb:
e|-0-|     e|-1-| 
B|-1-|     B|-3-|
G|-0-|     G|-3-|
D|-2-|     D|-3-|
A|-3-|     A|-1-|
E|-X-|     E|-X-|

C              Bb                         C
Every day is another chance to bury my regret
C              Bb                            C
Every day is another chance to make it but I can't
C
But I can't, but I can't...

[Verse/Outro]
    C/E9th            C                     Dm                C/E9th
e|-----------------|--------------0------|----------1------|------------------------|
B|----------1------|----------1----------|------3-------3--|--------------1---------|
G|------0-------0--|------0-----------0--|----2-------2----|------0---2--------(2)--|
D|----3-------3----|----2-------2---2----|--0-----0--------|--3-----3---3---(3)-----|
A|--1-----1--------|--3-----3------------|-----------------|------------------------|
E|-----------------|---------------------|-----------------|------------------------|

Should I decide it's true
That you'd return if given half the chance to come
But it's not true...

**********************************

 ( )   Ghost note
  x    Mute

**********************************

            
            
Suggest correction
Creating personal tab
Creating personal tab
You can edit any tab online and save it as your Personal.

You can edit, replace or remove any tab part or add personal notes – all changes will be seen only by you.

Personal tabs can be accessed anytime from any device, even offline.
Learn more »
Give kudos to tab author, rate the tab!
1 2 3 4 5
comments
print report bad tab
guest
You may want to rate the tab now too:
select rating
Wanna post a correction for this tab? Suggest correction