Oops, an error
Loading. Please wait.

Well Enough tab

52 views 1 this week
no commentswrite comment
1 2 3 4 5
3 more votes to show rating
add to favorites
×
Save as Personal and add changes to this tab that will be seen only by you. Learn more ›
×
You can save this tab as Personal to edit and correct it or add notes. All changes will be seen only by you. Learn more »
launch autoscroll
font size
0
reset
how to read this tab
guitar tuner
edit
Autoscroll
slow
fast
+/-
esc
set tempo
stop
Tuning Low to High: E G# C# F# B D#
Capo: 3rd Fret

[Intro]
d#|--------------------------|---------------------------|
 B|--------0-----------------|--------0------------------|
F#|--------------------------|---------------------------|
C#|--0h2---------2p0---0-----|--0h2---------2p0---0------|
G#|--------------------------|---------------------------|
 E|--2---2-----2-2---2-----2-|--2---2-----2-2---2-----2--|

d#|--------------------------|---------------------------|
 B|--------------0-----------|--------------0------------|
F#|--------------------------|---------------------------|
C#|--5-----5-----------5-----|--5-----5-----------5------|
G#|--3-----------------------|--3------------------------|
 E|--0---0---0---0---0---0---|--0---0---0---0---0---0----|

[Verse]
d#|--------------------------|---------------------------|
 B|--------0-----------------|--------0------------------|
F#|--------------------------|---------------------------|
C#|--0h2---------2p0---0-----|--0h2---------2p0---0------|
G#|--------------------------|---------------------------|
 E|--2---2-----2-2---2-----2-|--2---2-----2-2---2-----2--| 
                                                           
d#|--------------------------|---------------------------| 
 B|--------------0-----------|--------------0------------|
F#|--------------------------|---------------------------|
C#|--5-----5-----------5-----|--5-----5-----------5------|
G#|--3-----------------------|--3------------------------|
 E|--0---0---0---0---0---0---|--0---0---0---0---0---0----|

d#|--------------------------|---------------------------|
 B|--------0-----------------|--------0------------------|
F#|--------------------------|---------------------------|
C#|--0h2---------2p0---0-----|--0h2---------2p0---0------|
G#|--------------------------|---------------------------|
 E|--2---2-----2-2---2-----2-|--2---2-----2-2---2-----2--| 
                                                           
d#|--------------------------|---------------------------| 
 B|--------------0-----------|--------------0------------|
F#|--------------------------|---------------------------|
C#|--5-----5-----------5-----|--5-----5-----------5------|
G#|--3-----------------------|--3------------------------|
 E|--0---0---0---0---0---0---|--0---0---0---0---0---0----|

d#|--------------------------|---------------------------|
 B|--------0-----------------|--------0------------------|
F#|--------------------------|---------------------------|
C#|--0h2---------2p0---0-----|--0h2---------2p0---0------|
G#|--------------------------|---------------------------|
 E|--2---2-----2-2---2-----2-|--2---2-----2-2---2-----2--|

d#|--------------------------|--0------------------------|
 B|--------------0-----------|--------0------------------|
F#|--------------------------|--------------0------------|
C#|--5-----5-----------5-----|--------------------5------|
G#|--3-----------------------|---------------------------|
 E|--0---0---0---0---0---0---|--0---0---0---0---0---0----|

d#|--------------------------|---------------------------|
 B|--------0-----------------|---------------------------|
F#|--------------------------|---------------------------|
C#|--0h2---------2p0---0-----|--3-----2-----0-----0------|
G#|--------------------------|---------------------------|
 E|--2---2-----2-2---2-----2-|--2---2-----2-2---2-----2--|

d#|--------------------------|---------------------------|
 B|--------------0-----------|--------------0------------|
F#|--------------------------|---------------------------|
C#|--5-----5-----------5-----|--5-----5-----------5------|
G#|--3-----------------------|--3------------------------|
 E|--0---0---0---0---0---0---|--0---0---0---0---0---0----|

[Chorus]
d#|--0-----------0-----------|--0------------------------|
 B|--0-----------0-----------|--0------------------------|
F#|--4-----------2-----------|--x------------------------| x2
C#|--5-----------2-----------|--5------------------------|
G#|--5-----------0-----------|--3------------------------|
 E|--------------------------|--0------------------------|

[Pre-verse]
d#|--------------------------|---------------------------|
 B|--------0-----------------|--------0------------------|
F#|--------------------------|---------------------------|
C#|--0h2---------2p0---0-----|--0h2---------2p0---0------|
G#|--------------------------|---------------------------|
 E|--2---2-----2-2---2-----2-|--2---2-----2-2---2-----2--|

d#|--------------------------|---------------------------|
 B|--------------0-----------|--------------0------------|
F#|--------------------------|---------------------------|
C#|--5-----5-----------5-----|--5-----5-----------5------|
G#|--3-----------------------|--3------------------------|
 E|--0---0---0---0---0---0---|--0---0---0---0---0---0----|

[Verse]
d#|--------------------------|---------------------------|
 B|--------0-----------------|--------0------------------|
F#|--------------------------|---------------------------|
C#|--0h2---------2p0---0-----|--0h2---------2p0---0------|
G#|--------------------------|---------------------------|
 E|--2---2-----2-2---2-----2-|--2---2-----2-2---2-----2--| \
                                                            x2
d#|--------------------------|---------------------------| /
 B|--------------0-----------|--------------0------------|
F#|--------------------------|---------------------------|
C#|--5-----5-----------5-----|--5-----5-----------5------|
G#|--3-----------------------|--3------------------------|
 E|--0---0---0---0---0---0---|--0---0---0---0---0---0----|

d#|--------------------------|---------------------------|
 B|--------0-----------------|--------0------------------|
F#|--------------------------|---------------------------|
C#|--0h2---------2p0---0-----|--0h2---------2p0---0------|
G#|--------------------------|---------------------------|
 E|--2---2-----2-2---2-----2-|--2---2-----2-2---2-----2--|

d#|--------------------------|---------------------------|
 B|--------------0-----------|--------------0------------|
F#|--------------------------|---------------------------|
C#|--5-----5-----------5-----|--5-----5-----------5------|
G#|--3-----------------------|--3------------------------|
 E|--0---0---0---0---0---0---|--0---0---0---0---0---0----|

d#|--------------------------|---------------------------|
 B|--------0-----------------|---------------------------|
F#|--------------------------|---------------------------|
C#|--0h2---------2p0---0-----|--3-----2-----0-----0------|
G#|--------------------------|---------------------------|
 E|--2---2-----2-2---2-----2-|--2---2-----2-2---2-----2--|

d#|--------------------------|---------------------------|
 B|--------------0-----------|--------------0------------|
F#|--------------------------|---------------------------|
C#|--5-----5-----------5-----|--5-----5-----------5------|
G#|--3-----------------------|--3------------------------|
 E|--0---0---0---0---0---0---|--0---0---0---0---0---0----|

[Chorus]
d#|--0-----------0-----------|--0------------------------|
 B|--0-----------0-----------|--0------------------------|
F#|--4-----------2-----------|--x------------------------| x4
C#|--5-----------2-----------|--5------------------------|
G#|--5-----------0-----------|--3------------------------|
 E|--------------------------|--0------------------------|

[Outro]
d#|--------------------------|---------------------------|
 B|--------0-----------------|--------0------------------|
F#|--------------------------|---------------------------|
C#|--0h2---------2p0---0-----|--0h2---------2p0---0------|
G#|--------------------------|---------------------------|
 E|--2---2-----2-2---2-----2-|--2---2-----2-2---2-----2--|

d#|--------------------------|---------------------------|
 B|--------------0-----------|--0-----------0------------|
F#|--------------------------|---------------------------|
C#|--5-----5-----------5-----|--------5-----------5------|
G#|--3-----------------------|---------------------------|
 E|--0---0---0---0---0---0---|------0---0---0---0---0----|

d#|--------------------------|---------------------------|
 B|--------0-----------------|---------------------0-----|
F#|--------------------------|---------------------------|
C#|--0h2---------2p0---0-----|--3-----2-----0h2----------|
G#|--------------------------|---------------------------|
 E|--2---2-----2-2---2-----2-|--2---2-----2-----2----(2)-|

d#|--------------0-----------|--0~-----------------------|
 B|--------0-----------0-----|---------------------------|
F#|--------------------------|---------------------------|
C#|--5-----------------------|---------------------------|
G#|--3-----------------------|---------------------------|
 E|--0---0-----0-----0-----0-|---------------------------|


************************************

| h   Hammer-on
| p   Pull-off
|(n)  Ghost note

************************************
Suggest correction
Creating personal tab
Creating personal tab
You can edit any tab online and save it as your Personal.

You can edit, replace or remove any tab part or add personal notes – all changes will be seen only by you.

Personal tabs can be accessed anytime from any device, even offline.
Learn more »
Give kudos to tab author, rate the tab!
1 2 3 4 5
comments
print report bad tab
guest
You may want to rate the tab now too:
select rating
Wanna post a correction for this tab? Suggest correction