Oops, an error
Loading. Please wait.

Linda Wawita tab

version 2
version 2

Whole song

44 views 1 this week
no commentswrite comment
1 2 3 4 5
3 more votes to show rating
add to favorites
×
Save as Personal and add changes to this tab that will be seen only by you. Learn more ›
×
You can save this tab as Personal to edit and correct it or add notes. All changes will be seen only by you. Learn more »
launch autoscroll
font size
0
reset
how to read this tab
guitar tuner
edit
Autoscroll
slow
fast
+/-
esc
set tempo
stop
Esta canción es trancrita por Diego Maita, espero les guste.
Saludos a mis amigos de la UTP y el colegio San Juan de Dios ;)

Intro:

Riff 1

e --------------------------------------------------
B ---------------------11-10----8-------------------
G ------7-7--7-7-8-10--------10---------------------
D --------------------------------------------------
A --------------------------------------------------
E --------------------------------------------------

e --------------------------------------------------
B --------------------10-8-10-----------------------
G ------5-5--5-5-7-8----------10--------------------
D --------------------------------------------------
A --------------------------------------------------
E --------------------------------------------------

Riff 2

e ---------------------8----8-----------------------
B ------11-10----8-------10-------------------------
G ------------10--------------10--------------------
D --------------------------------------------------
A --------------------------------------------------
E --------------------------------------------------

Al mismo tiempo del Riff 2 terminando cada parte
puede tocar otra guitarra rápidamente esto, guíense
de la música ;)

e ---------------------------------8----------------
B --------11-10-8----8-----11-10-8------------------
G ----------------10-----------------10-------------
D --------------------------------------------------
A --------------------------------------------------
E --------------------------------------------------

LA#
Al recorrer tu carita bonita
DOm
Cierro los ojos y sueño
               FA          LA#
que estás conmigo Linda wawita

LA#
Cuando alumbran las estrellas de noche
DOm
Y recuerdo tu sonrisa de niña
         FA                 LA#
Solo suspiro por ti linda wawita

Coro:

DOm                FA    LA#           SOLm
No sé si me recordarás, o por donde estarás,
DOm                    FA            LA#
Solo sé que siempre serás mi linda wawita (bis)

Intro y letra(de nuevo)
Suggest correction
Creating personal tab
Creating personal tab
You can edit any tab online and save it as your Personal.

You can edit, replace or remove any tab part or add personal notes – all changes will be seen only by you.

Personal tabs can be accessed anytime from any device, even offline.
Learn more »
Give kudos to tab author, rate the tab!
1 2 3 4 5
comments
print report bad tab
guest
Wanna post a correction for this tab? Suggest correction