Oops, an error
Loading. Please wait.
904 views 39 this week
no commentswrite comment
1 2 3 4 5
x 5
add to favorites
launch autoscroll
font size
0
reset
how to read this tab
guitar tuner
×
Best way to learn
"679"
Autoscroll
slow
fast
+/-
esc
set tempo
stop
Author
Difficulty
  follow
intermediate
-------------------------------------------------------------------------------
                      679 - Fetty Wap (William Singe Cover)
-------------------------------------------------------------------------------

[Intro (Repeats the Whole Song)]

e|--------------x--8---------------4----------------------------------------|
B|---------9h11-9--9---------------4----------------------------------------|
G|------10------8--8-----6h8-------5----------------------------------------|
D|---11---------10--------------6-------------------------------------------|
A|-9------------8-------8-----4---------------------------------------------|
E|--------------x----6------------------------------------------------------|


First time submission! I determined the chords/tab by watching the cover video and by ear.
I use the following chord shapes (listed in order) when playing:

F#M7   (x 9 11 10 11 9)
FM7    (x 8 10 8  9  8)
A#M7   (6 8 6  6  6  x)
G#add4 (4 4 6  5  4  4}


************************************

| x   Dead note
| h   Hammer-on

************************************
Suggest correction
comments
print report bad tab
guest
You may want to rate the tab now too:
select rating
Wanna post a correction for this tab? Suggest correction