Oops, an error
Loading. Please wait.

What Wondrous Love Is This tab

248 views 6 this week
no commentswrite comment
1 2 3 4 5
2 more votes to show rating
add to favorites
×
Save as Personal and add changes to this tab that will be seen only by you. Learn more ›
×
You can save this tab as Personal to edit and correct it or add notes. All changes will be seen only by you. Learn more »
launch autoscroll
font size
0
reset
how to read this tab
guitar tuner
edit
Autoscroll
slow
fast
+/-
esc
set tempo
stop
Author
what wondrous love is this
This was arranged by me. If you like it please rate.

[intro]
e|--------------------------------------------------------------------1----1----1----|
B|----------------------------------------1--0----------------------3-----3----3-3---|
G|--------0--2--0---------------------2----------2---0---2--0------------------------|
D|0-0--2-----------2--0---0-------2-----------------------------2--0---0-0--0-0------|
A|---3------------------------3------------------------------------0-----------------|
E|--------------------------------------------------------------0--------------------|
[verse]
e|-----------------------------------------------------------------------------|
B|-------------------------------------------------------1---0-----------------|
G|--------------------0---2---0---------------------2-------------2----0---2---|
D|-0---0---------2--------------2---0---0------2---------2---0----2----0---2---|
A|-----0---3-----3----2---0-2-3-2---0------3---3----3------------------------0-|
E|-----------------------------------------------------------------------------|
  what wondrous love is this oh my soul oh my soul what wondrous love is this 
e|-----------------------------------------------------------------------------|
B|------------------------------1----3----3---1--------------------------------|
G|-0----------0----2---0----2------------------------2----2-0------------------|
D|---2---0----0--------0----2---2----0----2-3-2----------------2--0----0---0---|
A|-3-2---0---------3---------------------------------3----3----------------0---|
E|-----------------------------------------------------------------------------|
  oh my soul what wondrous love is this that caused the lord  of bliss to bear
e|--------------------------------------------------------------------------------1----1----1--|
B|-----------------------------------------------1----0--------------------------3----3----3-3-|
G|----------0----2----0----------------------2------------2---0-----2----0---------------------|
D|------2----------------2---0----0------2------------0---2---0----------0--2---0--0-0--0-0----|
A|-3----3---2----0----2--3--------0--3---3---3---3------------------3-----------0--------------|
E|---------------------------------------------------------------------------------------------|
  the dreadful curse for my soul for my soul to bear the dreadful curse for my soul
e|-----0------0-------1---0--------1-------------0-------0------1--------0---|
B|-----1------0-------1---1--------3-------------1-------1--0---1--------1---|
G|-----2------0---0---2---0--------2-------------0---2---2------2----0---2---|
D|--0--2------2-------3---2---2----0------0------2-------2--0---3----0---2---|
A|-----0---3--2---2---0-2-3---2----0--------3----3---3---0------0--------0---|
E|-----0------0-----------0----------------------0-------0---------------0---|
  when i was sinking down sinking down sinking down when i was sinking down 
e|---------1-----------1------0-------1--------0--------------------1--------|
B|---------3-----------1------1---1---3----3---1--------------------3--------|
G|-0-------2--2----0---2--0---2-------2--------2---2-----2---0------2--------|
D|---2-----0-0-0---0---3--0---2---2---0----2---2---------------2----0-----0--|
A|-3-2-----0------------------0-------0--------0---3-----3----------0--------|
E|----------------------------0----------------0-----------------------------|
  sinking down    when I was sinking down beneath God's righteous frown christ 
e|--0------0-------1-------0----1------------0-----------0---------------0------------1----1----1--|
B|--1------0-------1----1--1----3------------1-----------1----0----------1-----------3----3----3-3-|
G|--2------0--0----2----0--0----2------------0-----2-----2------2---0----2----0--------------------|
D|--2------2-------3-------2----0-----0------2-----------2----0-2---0----2----0--2--0--0-0--0-0----|
A|--0--3---2--2----0-2-----3----0-----0--3---3-----3-----0---------------0----------0--------------|
E|--0------0---------------0-----------------0-----------0---------------0-------------------------|
  laid aside His crown for my soul   for my soul Christ laid aside his crown for my soul 
e|----------------------------------------------------------------------------|
B|--------------------------------------------------1---0---------------------|
G|--------------0---2---0-------------------------2--0---0--2---0--2---0------|
D|0---0------2---2---2-2---2----0-0--0------2---2------------2---0--2-2-2--2--|
A|-0-----3----2-------0--2--3----0-0----3----2-2----3----------------0------2-|
E|--------------------------------------------0-------------------------------|
  to God and to the Lamb I will sing I will sing to God and to the Lamb I will
e|------------------------------------------------------------------------------|
B|--------------------1--3----3---1---------------------------------------------|
G|-----0--2---0---2--------0----0-2--2---2-0-------------------------------0----|
D|0-0---2--2---2---0------0----0-0-2--2--------2-0-0---0----0---------2-----2---|
A|-0-0----------------------------0---------------0-0------------3-----2--------|
E|-----------------------3----3-------------------------------------------------|
  sing to God and to the Lamb who is the great I am   while millions join the 
e|------------------------------------------------------------------------1----1----1-|
B|------------------------------------1---0------------------------------3----3----3-3|
G|-2----0------------------------2-----0---0---2-----0---2----0-----------------------|
D|--2-2---2----0-0--0------2---2---------------2-----2----2-2--2-2----0----0-0--0-0---|
A|---0---2-3----0-0----3----2-2-------3--------0-----2-----0------0---0---------------|
E|---------------------------0--------------------------------------------------------|
  theme I will sing I will sing while millions join the theme I will sing
e|--1----1----1----1---------------------------------------------------------|
B|-3----3----3----3-3----1----1----1----1----2----2----2----2----2----2----2-|
G|----------------------0----0----0----0-0--1----1----1----1-1--3----3----3--|
D|0--0-0--0-0--0-0------------------------3---3-3--3-3--3-3------------------|
A|---------------------3--3-3--3-3--3-3-----------------------1--1-1--1-1----|
E|---------------------------------------------------------------------------|

e|-------------------------------------------------------------------------------------------|
B|--------------------------------------------------------------------2---1------------------|
G|---------------------1----3----1--------------------------------3----3---1----3----1---3---|
D|-1----1--------3------3----3-3-----3-----1-1--1---------3---3------------------3----1---3-3|
A|---1-------4----1-----------1---3---4-----3-3------4-----3-3--------1--------------------1-|
E|----------------------------------------------------------1--------------------------------|
   and when  from death I'm free I'll sing on   I'll sing on     and when from death I'm free  
e|------------------------------------------------------------------------------------------------|
B|----------------------------------------2----4--4--4---4--2-------------------------------------|
G|1-----------------1-----3---1-----3-----------------------3----3---3-1--------------------------|
D|-3---3----1-1-1----3-----3---3-----1------------------------3---3--------3--1-1-1---1-1---------|
A|------3----3-3--------------------------------------------1------------------1-1--------------4-|
E|---------------------------------------------4-4-4-4--4-4---------------------------------------|
  I'll sing on      and   when from death I'm free  I'll  sing  His love for me    and through e- 
e|-----------------------------------------------------------------------------------------------|
B|--------------------------------------------------------2------1-------------------------------|
G|---------1----3-----1-------------------------------3----3------1---3---1---3---------1-----3--|
D|-3--------3----3-3--------3---1--1--1---------3---3-----------------3---3----3-3---3--3-----1--|
A|--3-------------1----3-----4---1--1------4-----3-3------4-----------1---3-----1----1--------1--|
E|------------------------------------------------1----------------------------------------------|
  -tern -  it - y     i'll sing on    I'll sing on   and through e - tern-it - y   i'll sing on
Did you like this? If so please rate.

            
            
Suggest correction
Creating personal tab
Creating personal tab
You can edit any tab online and save it as your Personal.

You can edit, replace or remove any tab part or add personal notes – all changes will be seen only by you.

Personal tabs can be accessed anytime from any device, even offline.
Learn more »
Give kudos to tab author, rate the tab!
1 2 3 4 5
comments
print report bad tab
guest
You may want to rate the tab now too:
select rating
Wanna post a correction for this tab? Suggest correction