Oops, an error
Loading. Please wait.

Five Bagatelles For Guitar - 4 Tab

330 views 1 this week
no commentswrite comment
1 2 3 4 5
3 more votes to show rating
add to favorites
launch autoscroll
font size
0
reset
how to read this tab
guitar tuner
Autoscroll
slow
fast
+/-
esc
set tempo
stop
Help us to improve Ultimate-Guitar.com Take our survey!
×
Author
Bagatelle No 4 (From Five Bagatelles for Guitar) - William Walton (1902-1983)

original Guitar Pro tab by MQ
text version by Weed - weed@wussu.com - http://www.wussu.com
last updated 1 July 2005

note the many time signature changes

  <7> = harmonic on the open string, left hand 7th fret
0<12> = harmonic on the open string, right hand 12th fret
3<12> = harmonic, left hand 3rd fret, right hand 3+12 = 15th fret


1  5/8               8/8
E||--------------2--|--3---------2-------------------------------------|
B||--------2--3-----|--3--0<12>--2--0<12>--2<12>--0<12>--3<12>--0<12>--|
G||--2--4-----------|--4---------2--2------2------2------2------2------|
D||-----------------|--2------------0-------------0--------------------|
A||-----------------|-----0<12>----------------------------------------|
E||-----------------|--------------------------------------------------|

3
--3---------2-------------------------------------|
--3--0<12>--2--0<12>--2<12>--0<12>--3<12>--0<12>--|
--4---------2--2------2------2------2------2------|
--2------------0-------------0--------------------|
-----0<12>----------------------------------------|
--------------------------------------------------|

4
--1---------0-------------------------------------|
--1---------0-------------------------------------|
--2------2--0--2<12>--4<12>--2<12>--5<12>--2<12>--|
--0<12>--------5------5------5------5--5----------|
---------------3-------------3--------------------|
---------3----------------------------------------|

5
--1---------0-------------------------------------|
--1---------0-------------------------------------|
--2------2--0--2<12>--4<12>--2<12>--5<12>--2<12>--|
--0<12>--------5------5------5------5------5------|
---------------3-------------3--------------------|
---------3----------------------------------------|

6
----------------------------------------------|
--4-----3-------------------------------------|
--3-----2--0<12>--2<12>--0<12>--3<12>--0<12>--|
--5--5--3--3------3------3------3------3------|
--3--------1-------------1--------------------|
-----1----------------------------------------|

7
----------------------------------------------|
--4-----3-------------------------------------|
--3-----2--0<12>--2<12>--0<12>--3<12>--0<12>--|
--5--5--3--3------3------3------3------3------|
--3--------1-------------1--------------------|
-----1----------------------------------------|

8                                  10/8
--1---------0<12>-----------------|---------------------------0--12--|
--1---------3---------------------|--------------9--5--9--10---------|
--2------2---------4--6--1--2-----|--1--2--6--9----------------------|
--0<12>------------------------2--|----------------------------------|
-------------------0-----0--------|----------------------------------|
---------3------------------------|----------------------------------|

10 9/8
--<12>----------------------10--------|---9-----------------------------|
------------11-----7--------11--------|---------------------------------|
--------10------7--------7--10--<12>--|---------------------------------|
----------------------8---------------|--<7>--------------7--6--7-------|
--<9>---------------------------------|----------0-----7-----------<7>--|
--------------------------------------|-------0-----9-------------------|

12
--0<12>----------------------------------|
--2------------------------------3-------|
------------3--------------------3-------|
---------3-----0<12>--3--------0<12>--2--|
----------------------------1------------|
-------------------------2---------------|

13
-------------------------------5<12>--|
--2----------------------------7------|
--------------------------------------|
--4-----------------4-----------------|
--------------3--5-----12<12>---------|
-----2--5--6--------------------------|

14 3/4
-----5<12>--3<12>-----2<12>-----|-----2<12>--0<12>-------------------|
-----7------5---------3---------|-----4------2-------------3<12>-----|
--3----------------3--0------3--|-----0<12>---------0<12>--4---------|
--------------------------------|--2-----------------------2------5--|
--------------------------------|------------------------------------|
--------------------------------|------------------------------------|

16
--------------------------------|------------------------|
-----4<12>--1<12>-----0<12>-----|------------------------|
-----4------2---------0---------|--3<12>-----------4-----|
-----2-------------2---------2--|--4------------4--5-----|
--3-------------------3---------|---------4--5--------5--|
--------------------------------|------------------------|

18                   5/4
--------------7-----|--6-------------------------------------|
--------------------|--------------------7--11--------0<12>--|
--3-----------7-----|--5-----------3--6---------<12>---------|
--4--------4--5-----|-----------4---------------<12>---------|
-----4--5--------5--|-----4--5------------------------0<12>--|
--------------------|----------------------------------------|

20
--2--------------------------|--2--------------------------|
--2--0--2--0--3--0--------0--|--2--0--2--0--3--0--------0--|
-----2--2--2--2--2--<12>-----|-----2--2--2--2--2--<12>-----|
-----0-----0--------<12>-----|-----0-----0--------<12>-----|
--------------------------0--|--------------------------0--|
-----------------------------|-----------------------------|

22 12/8
--2--------2--6--8--13-------------------------------------|
--2-----2-------------------------------------------2<12>--|
-----3---------------------------------------2<12>---------|
-----0--------------------------------4<12>----------------|
------------------------1<12>--4<12>-----------------------|
-----------------------------------------------------------|

23
-------------------9--------------------||
--<7>--------------11----7-8-7----------||
---------------------------------6------||
-------------<12>----------------7------||
---------------------------------5------||
----------------------------------------||

Suggest correction
Give kudos to tab author, rate the tab!
1 2 3 4 5
comments
print report bad tab
guest
You may want to rate the tab now too:
select rating
Wanna post a correction for this tab? Suggest correction