Oops, an error
Loading. Please wait.

On The Road Again Chords

version 2
version 2

Whole song

Interactive

Video

21,564 views 90 this week
3 commentsread comments
1 2 3 4 5
x 8
add to favorites
launch autoscroll
font size
0
reset
transpose
0
reset
display chords
guitar tuner
×
Best way to learn
"On The Road Again"
Autoscroll
slow
fast
+/-
esc
set tempo
stop
Author
Difficulty
  follow
novice
               
                 song: On the road again
                 artist: willie nelson
                tabbed by: Moose92

            intro
          e|-----------------------|
          B|-----------------------|
          G|-----------------------|  
          D|-----------------------|repeat 4X
          A|-0h2-------------------|  
          E|-----0-----------------| 
          

           E
          On the road again
                                      G 
          Just can't wait to get on the road again
                                    G#
          The life I love is makin' music with my friends
              A                     B            E
          And I can't wait to get on the road again

          
           E
          On the road again
                             G
          Goin' places that I've never been
                             G#
          Seein' things that I may never see again,
              A                    B             E
          And I can't wait to get on the road again.



              A
          On the road again
                                                   E
          Like a band of gypsies we go down the highway
                     A
          We're the best of friends
                                                 E
          Insisting that the world be turnin' our way
               B
          And our way


            E
         Is on the road again
                                 G
         Just can't wait to get on the road again
                              G#
         The life I love is makin' music with my friends
              A                   B            E
         And I can't wait to get on the road again


         SOLO:

         |------------------------------------------------------------|
         |------------------------------------------------------------|
         |-8-10H11H12-12-11-12-13-12-11-10H11H12-12-11-12-13-12-11-10-|
         |------------------------------------------------------------|
         |------------------------------------------------------------|
         |------------------------------------------------------------|
               REPEAT SOLO 2X

         |------------------------------------------------------------|
         |------------------------------------------------------------|
         |-12P11P10-10-10-9-10---10-10-13-13-13-13-12-10-10-7-8-------|
         |------------------------------------------------------------|
         |------------------------------------------------------------|
         |------------------------------------------------------------|




            A
        On the road again
                                               E
        Like a band of gypsies we go down the highway
                   A
        We're the best of friends
                                             E
        Insisting that the world be turnin' our way
             B
        And our way


              E
        Is on the road again
                                   G
        Just can't wait to get on the road again
                             G#
        The life I love is makin' music with my friends
             A                   B          E
        And I can't wait to get on the road again
             A                  B            E
        And I can't wait to get on the road again
Suggest correction
comments
print report bad tab
3 comments total.
0 reply
JBails 10 Oct 26, 2010 02:22 PM

Sorry but Vers 2 is definately closer than this

-1 reply
JBails 10 Oct 26, 2010 02:22 PM

Sorry but Vers 1 is definitly closer than this one

0 reply
FL_Bob2002 510 Dec 23, 2014 02:43 PM

Try the changes below and see how it sounds. If you play the G#m on the 4th fret then you keep the same shape and go to the 2nd fret for the F#m.

E
On the road again
G#m
Just can't wait to get on the road again
F#m
The life I love is makin' music with my friends
A B E
And I can't wait to get on the road again

G#m F#M
--4------ --2----
--4------ --2----
--4------ --2----
--6------ --4----
--6------ --4----
--4------ --2----

guest
You may want to rate the tab now too:
select rating
Wanna post a correction for this tab? Suggest correction