Oops, an error
Loading. Please wait.

Seven Spanish Angels Tab

37,253 views 69 this week
3 commentsread comments
1 2 3 4 5
x 7
add to favorites
launch autoscroll
font size
0
reset
how to read this tab
guitar tuner
Autoscroll
slow
fast
+/-
esc
set tempo
stop
Help us to improve Ultimate-Guitar.com Take our survey!
×
Seven Spanish Angels
--------------------

song-  Seven Spanish Angels
band-  Willie Nelson
year-  ?
album- ?

tuning:

standard tuning (E A D G B E)


Intro    gtr 1

|5--5--6---8----8---8---8--6--5--|3--5----------------|-------------------|
|6--6--8--10---10--10--10--8--6--|5--6--6---6--6--5---|5--3--3---3--3-----|
|--------------------------------|------7---7--7--5---|5--3--3---3--3--5--|
|--------------------------------|--------------------|----------------7--|
|--------------------------------|--------------------|-------------------|
|--------------------------------|--------------------|-------------------|

|--------5-6p5-----------|
|--------------6---------|
|--5-------------7-7--5--|
|--7---------------------|
|------------------------|
|------------------------|


gtr 2

|1-------------|1-------------|----------1----|1-----------|
|1-------------|3-------------|3---------1----|1-----------|
|2-------------|2-------------|3---------2----|2-----------|
|3-------------|0-------------|3---------3----|3-----------|
|3-------------|--------------|1---------3----|3-----------|
|1-------------|--------------|---------------|1-----------|



tab legend
-------------

p        pull off



well i was lookin and some of the tabs r pretty good but they didnt
have the intro so i decided i would put it so here u go!!
Suggest correction
comments
print report bad tab
3 comments total.
0 reply
GraceKim 187 Apr 08, 2010 02:34 PM

|5--6--8----------8---8---8--6--5--3--5---------------|
|6--8--10--------10--10--10--8--6--5--6--6------------|
|----------------------------------------7------------|
|-----------------------------------------------------|
|-----------------------------------------------------|
|-----------------------------------------------------|

|-------------------------------------5-6p5-----------|
|---6--6--5--5--3--3------3--3--------------6---------|
|---7--7--5--5--3--3------3--3--5--5----------7--5-5--|
|-------------------------------7--7------------------|
|-----------------------------------------------------|
|-----------------------------------------------------|

0 reply
Square_Peg 10 Apr 21, 2014 09:34 AM

In the opening riff there is a second 8
10 then the pause

|5--6--8--8-------8---8---8---6--5--3--5---------------|
|6--8--10-10------10--10--10--8--6--5--6--6------------|
|-----------------------------------------7------------|
|------------------------------------------------------|
|------------------------------------------------------|
|------------------------------------------------------|

0 reply
Square_Peg 10 Apr 21, 2014 09:37 AM

That did not transfer correctly....Oh well, the 1st 2 C/A licks is what i am referring to.

guest
You may want to rate the tab now too:
select rating
Wanna post a correction for this tab? Suggest correction