Oops, an error
Loading. Please wait.

Whiskey River bass

256 views 9 this week
no commentswrite comment
1 2 3 4 5
3 more votes to show rating
add to favorites
×
Save as Personal and add changes to this tab that will be seen only by you. Learn more ›
×
You can save this tab as Personal to edit and correct it or add notes. All changes will be seen only by you. Learn more »
launch autoscroll
font size
0
reset
guitar tuner
backing track
0:00
0:00
edit
Autoscroll
slow
fast
+/-
esc
set tempo
stop
Tabbed by: 6METAL6BASSIST6
E-mail: petergriffinav@gmail.com

Tuning: EADG

G|----------------------------------------------------------------|
D|----------------------------------------------------------------|
A|3-------------3-----3-------1---3---3---------3-----3-----------|
E|----------0-3-----3-----0-3---------------0-3-----3-----0-2---2-|

G|----------------------------------------------------------------|
D|--------------5-----5-------------------------5-----------------|
A|------------5-----5-----5-2-----------------5-------2-----3-----|
E|3---3-----5-----------5-------0-3---3-----5-------5-----5-----5-|

G|----------------------------------------------------------------|
D|----------------------------------------------------------------|
A|5---5---------5-----5-----3-----5---5---------5-----5---3-------|
E|----------0-5-----5---0-5-----5-----------0-5-----5-------0-5-0-|

G|----------------------------------------------------------------|
D|--------------5-----5-------------------------------------------|
A|------------5-----5-----5-2-------------------------------------|
E|3---3-----5-----------5-------0-3-----------------------------5-|

0:27

G|----------------------------------------------------------------|
D|----------------------------------------------------------------|
A|3---3---------3-----3-----1---0-3---3---------3-----3---2-------|
E|----------0-3-----3---0-3-----------------0-3-----5-------0-5-0-|

G|----------------------------------------------------------------|
D|--------------5-----5-------------------------5-----------------|
A|------------5-----5-----5-2-----------------5-------2-----3-----|
E|3---3-----5-----------5-------0-3---3-----5-------5-----5-----5-|

G|----------------------------------------------------------------|
D|----------------------------------------------------------------|
A|5---5---------5-----5-----3-----5---5---------5-----3-----------|
E|----------0-5-----5---0-5-----5-----------0-5-----5---0-6-0-5---|

G|----------------------------------------------------------------|
D|--------------5-----5-------------------------------------------|
A|------------5-----5-----5-2-------------------------------------|
E|3---3-----5-----------5-------0-3-------------------------------|

0:52

G|----------------------------------------------------------------|
D|5---------------------------------------------------------------|
A|--------5-------------------2---3---------------3-------2-------|
E|----------------3-------5---------------3-----5-------5-----5---|

G|--------------------------------------------------------------------------------|
D|----------------5-------5-------7-------7---------------------------------------|
A|--------5---------------------------------------5---------------5---3---2-------|
E|3-------------------------------------------------------5-----5-------------5---|

G|--------------------------------------------------------------------------------|
D|--------------------------------------------------------------------------------|
A|--------5---------------5-------------------2---3---------------3---2---3---4---|
E|3---------------3---------------3-------5---------------3-----5-----------------|

G|--------------------------------------------------------------------------------|
D|--------------------------------------------2---5-------------------------------|
A|5---------------5-------5---------------2---------------------------------------|
E|--------5-----5---------------0-3-----5-----------------------------------------|

1:21

G|----------------------------------------------------------------|
D|----------------------------------------------------------------|
A|3---------------3---3-----------3---3---------3-----------------|
E|--------------5---5-----0-3---5-----------0-3-----0---0-2---2---|

G|----------------------------------------------------------------|
D|--------------------5-------------------------5-----------------|
A|------------5/10--5-----7-5-----------------5-------2-----3-----|
E|3---3-----5-----------5-------0-3-0-3-----5-------5-----5-----5-|

G|----------------------------------------------------------------|
D|----------------------------------------------------------------|
A|5---5---------5-----5-----3-----5---5---------5-----5---3-------|
E|----------0-5-----5-----5-----5-----------0-5-----5-------0-5-0-|

G|----------------------------------------------------------------|
D|--------------5-----5-------------------------------------------|
A|------------------5-----5-2-------------------------------------|
E|3---3-----5-x---------5-------0-3-----------------------------5-|

1:46

G|----------------------------------------------------------------|
D|----------------------------------------------------------------|
A|3-------------3---0-3-----1---0-3---3---------3-----3---2-------|
E|----------0-3---------0-3-----------------0-3-----3-------0-5-0-|

G|----------------------------------------------------------------|
D|--------------5-----5-------------------------5-----------------|
A|------------5-----5-------5-----------------5-------2-----3-----|
E|3---3-----5-------------------0-3---3-----5-------5-----5-----5-|

G|----------------------------------------------------------------|
D|----------------------------------------------------------------|
A|5---5---------5-----5---3-----3-5---5---------5-----3-----------|
E|----------0-5-----5-------0-5-------------0-5-----5---0-6-0-5---|

G|----------------------------------------------------------------|
D|--------------5-----5-------------------------------------------|
A|------------5-----5-----5-2-------------------------------------|
E|3---3-----5-----------5-------0-3-------------------------------|

2:11

G|----------------------------------------------------------------|
D|5---------------------------------------------------------------|
A|--------5-------------------2---3---------------3-------2-------|
E|----------------3-----0-5---------------3-----5-------5-----5---|

G|--------------------------------------------------------------------------------|
D|----------------5-------5---6---7-------7---------------------------------------|
A|--------5---------------------------------------5---------------5---3---2-------|
E|3-----------------------------------------------------0-5-----5-------------5---|

G|--------------------------------------------------------------------------------|
D|--------------------------------------------------------------------------------|
A|--------5---------------5-------------------2---3---------------3---2---3---4---|
E|3---------------3-------------0-3-----0-5---------------3-----5-----------------|

G|--------------------------------------------------------------------------------|
D|--------------------------------------------2---5-------------------------------|
A|5---------------5-------5---------------2---------------------------------------|
E|--------5-----5-----------------3-----5-----------------------------------------|

2:41

G|----------------------------------------------------------------|
D|----------------------------------------------------------------|
A|3---------------3-0-3-----1---0-3---3---------3-----------------|
E|--------------3-------0-3-----------------0-3-----0---0-2---2---|

G|----------------------------------------------------------------|
D|--------------5-----5-------------------------5-----------------|
A|------------5-----5-----5-2-------------------------2-----3-----|
E|3---3-----5-----------3-------0-3---3-----x-x-----5-----5-----5-|

G|----------------------------------------------------------------|
D|----------------------------------------------------------------|
A|5---5---------5-----5-----3-----5---5---------5---3-------------|
E|----------0-5-----5---0-5-----5-----------0-5---------0-5-0-2---|

G|----------------------------------------------------------------|
D|--------------5-----5-------------------------------------------|
A|------------5-----5-----5-2---------------------------------2---|
E|3---3-----5-----------3-------0-3-------------------------5---5-|

3:06

G|----------------------------------------------------------------|
D|----------------------------------------------------------------|
A|3---3---------3---0-3-----1---0-3---3---------3-----2-----------|
E|----------0-3---------0-3-----------------0-3-----5---0-5-0-2---|

G|----------------------------------------------------------------|
D|--------------5-----5-------------------------5-----4-----------|
A|------------5-----5-----5-2-----------------5-----5-----7-------|
E|3---3-----5-----------5-------0-3---3-----5-----------5---0-5-5-|

G|--------------7-----7-------------------------------------------|
D|----------/-9-----5-----7-4-------------------------------------|
A|5---5-----------------5---------5---5---------5---3-------------|
E|------------------------------5-----------0-5---------0-5-0-2---|

G|----------------------------------------------------------------|
D|--------------5---3---------------------------------------------|
A|------------5-----------5-2-----------------------------2---2---|
E|3---3-----5-----------5-----0-5-3---------------------5---5-----|

3:31

G|----------------------------------------------------------------|
D|----------------------------------------------------------------|
A|3---3---------3---------------2-3---3---------3-----2-----------|
E|----------0-3-----0---0-2/3-5-------------0-3-----5---0-5-0-2---|

G|----------------------------------------------------------------|
D|--------------5-----5-------------------------5-----------------|
A|------------5-----5-----5-2-----------------5-------2-----3-----|
E|3---3-----5-----------5-------0-3---3-----5-------5-----5-----5-|

G|----------------------------------------------------------------|
D|----------------------------------------------------------------|
A|5---5---------5-----5---3---3---5---5---------5---3-------------|
E|----------0-5-----5-----------------------0-5---------5-0---2---|

G|----------------------------------------------------------------|
D|--------------5---3---------------------------------------------|
A|----------------------5-2-----------------------------------2---|
E|3---3-----x-x-------------0-5-0-3-------------------------5---5-|

G|------------------------------------------------------------------------|
D|------------------------------------------------------------------------| fades out here.
A|3---3---------3-----3---------2-3---3---------3-----5---3---------------|
E|----------0-3-----5-----0-3-5---------------5-----5-------0-5---3---3---|

************************************
| x  Dead note
| /  Slide up
************************************

            
            
Suggest correction
Creating personal tab
Creating personal tab
You can edit any tab online and save it as your Personal.

You can edit, replace or remove any tab part or add personal notes – all changes will be seen only by you.

Personal tabs can be accessed anytime from any device, even offline.
Learn more »
Give kudos to tab author, rate the tab!
1 2 3 4 5
comments
print report bad tab
guest
You may want to rate the tab now too:
select rating
Wanna post a correction for this tab? Suggest correction