Oops, an error
Loading. Please wait.

Oxygen Tab

version 2
version 2

Whole song

Interactive

26,152 views 66 this week
3 commentsread comments
1 2 3 4 5
excellent!
x 19
add to favorites
launch autoscroll
font size
0
reset
how to read this tab
guitar tuner
Tab Pro tools
  • play this tab
  • loop segment
  • change instrument
  • show fretboard
  • metronome
×
Best way to learn
"Oxygen"
Autoscroll
slow
fast
+/-
esc
set tempo
stop
Contributor
              Willy Mason - Oxygen

Intro
e|------------------------------|
B|------------------------------|
G|------------------------------|  X3  
D|------------------------------|  Fiddle about a bit for the
A|------------------------------|  timing with the song
E|5---5-5---5-5---5-5---5-5---5-|

Verse
e|------------------------------|                     
B|------------------------------|
G|------------------------------|
D|------------------------------|
A|------------------------------|
E|5---5-5---5-5---5-5---5-5---5-|
  I wanna be better than oxygen....

e|------------------------------|
B|------------------------------|
G|------------------------------|
D|------------------------------|
A|------------------------------|
E|5---5-5---5-7---7-7---7-9---99|
  And weak at the knees....

e|------------------------------|
B|------------------------------|
G|------------------------------|
D|------------------------------|
A|------------------------------|
E|9---9-9---9-9---9-9---9-9---9-|
  I wanna speak louder....

e|---------------------------------------|
B|---------------------------------------|
G|---------------------------------------|
D|---------------------------------------|
A|---------------------------------------|
E|9---9-9---9-11---11-11---11-12---12-12-|
  Think that they've got a disease....

e|---------------------------------------|
B|---------------------------------------|
G|---------------------------------------|
D|---------------------------------------|
A|---------------------------------------|
E|12---12-12---12-12---12-12---12-12---12|
  I wanna be cooler than tv....

e|---------------------------------------------|
B|---------------------------------------------|
G|----------------         The pattern repeats |
D|----------------           itself for the    |
A|----------------    second part of the verse |
E|12---12-12---12-12---12-12->>>>-5---55---55--|
  Wonderin' what they're goin to be

e|------------------------------------|
B|------------------------------------|
G|------------------------------------|
D|------------------------------------|
A|------------------------------------|
E|-5---5-5---5-5---5-5---5-5---5-5....  continue as before....
We can be stonger than bombs

                                   Pre-chorus      B7
e|-------------------------------------------------7-------7--7-7--7--7--|
B|-------------------------------------------------7-------7--7-7--7--7--|
G|-------------------------------------------------8-------8--8-8--8--8--|
D|-------------------------------------------------7-------7--7-7--7--7--|
A|-------------------------------------------------9-------9--9-9--9--9--|
E|-12---12-12---12-12---12-12---12-12---12-12------7-------7--7-7--7--7--|
  Cause we speak in silence every time our eyes meet....

Chorus
  E             C#m
e|---------------4--4-4---4--|
B|0---0--0--0-0--5--5-5---5--|
G|1---1--1--1-1--6--6-6---6--|
D|2---2--2--2-2--6--6-6---6--|
A|2---2--2--2-2--4--4-4---4--|
E|0---0--0--0-0--------------|
  On and on and on it goes....

    A                    Am
e|--5--5--5---5----------5--5-5-|
B|--5--5--5---5----------5--5-5-|
G|--6--6--6---6----------5--5-5-|
D|--7--7--7---7----------7--7-7-|
A|--7--7--7---7----------7--7-7-|
E|--5--5--5---5----------5--5-5-|
  The world it just keeps spinnin.....

  E             C#m
e|---------------4--4-4---4--|
B|0---0--0--0-0--5--5-5---5--|
G|1---1--1--1-1--6--6-6---6--|
D|2---2--2--2-2--6--6-6---6--|
A|2---2--2--2-2--4--4-4---4--|
E|0---0--0--0-0--------------|
  Til im dizzy,  Time to breathe....

     F#m       A        Am         E
e|----2--------5---------5------------|
B|----2--------5---------5---------0--|
G|----2--------6---------5---------1--|
D|----4--------7---------7---------2--|
A|----4--------7---------7---------2--|
E|----2--------5---------5---------0--|
  So close my eyes and start again anew

Verse
(Same pattern as before)

Chorus
(Same as before)

Bridge
   E                    F#m       A
e|-----------------------2-2--2---5--5-5---5--5-----------|
B|-0-0--0--0--0-0---0----2-2--2---5--5-5---5--5-----------|
G|-1-1--1--1--1-1---1----2-2--2---6--6-6---6--6-----------|
D|-2-2--2--2--2-2---2----4-4--4---7--7-7---7--7-----------|
A|-2-2--2--2--2-2---2----4-4--4---7--7-7---7--7-----------|
E|-0-0--0--0--0-0---0----2-2--2---5--5-5---5--5-----------|
  If im afraid to catch a dream, I weave your baskets and

   E                       F#m       A
e|-------------------------2-2--2---5--5-5---5--5-----------|
B|-0-0--0--0--0-0---0------2-2--2---5--5-5---5--5-----------|
G|-1-1--1--1--1-1---1------2-2--2---6--6-6---6--6-----------|
D|-2-2--2--2--2-2---2------4-4--4---7--7-7---7--7-----------|
A|-2-2--2--2--2-2---2------4-4--4---7--7-7---7--7-----------|
E|-0-0--0--0--0-0---0------2-2--2---5--5-5---5--5-----------|
  Ill Float them down the river stream..

    C#m                           A                             E
e|---4-4---4--4---4---4----4------5---5-5---5---5---5-----5------------|
B|---5-5---5--5---5---5----5------5---5-5---5---5---5-----5-----0------|
G|---6-6---6--6---6---6----6------6---6-6---6---6---6-----6-----1------|
D|---6-6---6--6---6---6----6------7---7-7---7---7---7-----7-----2------|
A|---4-4---4--4---4---4----4------7---7-7---7---7---7-----7-----2------|
E|--------------------------------5---5-5---5---5---5-----5-----0------|
  Each one i weave with words i speak to carry love to your relief

     E
e|-----------------------------------------------|
B|---0-0-0---0-0---------------------------------|
G|---1-1-1---1-1---------------------------------|
D|---2-2-2---2-2---------------------------------|
A|---2-2-2---2-2---------------------------------|
E|---0-0-0---0-0---2---4---5---5-5----5-5--<<
                                        
comments
print report bad tab
3 comments total.
0 reply
giantdragon wrote on April 30 2007, 03:32 pm

perfect.
basically.

+1 reply
molo32o wrote on July 30 2007, 03:52 pm

Cheers for that its awesome... gotta love willy...
erm... willy mason i mean ;).
Cheers again.

0 reply
Stirro wrote on July 14 2009, 06:58 am

Great Stuff. Played this last night and it's spot on.

A new album from Willy is out very soon apparently.

I want to post or [tab]
guest
You may want to rate the tab now too:
select rating
Please do not post tabs as comments. Select "correction" instead!