Oops, an error
Loading. Please wait.

Save Myself Tab

version 1
version 1

Intro

Whole song

2,809 views 18 this week
no commentswrite comment
1 2 3 4 5
2 more votes to show rating
add to favorites
launch autoscroll
font size
0
reset
how to read this tab
guitar tuner
×
Best way to learn
"Save Myself"
Autoscroll
slow
fast
+/-
esc
set tempo
stop
Author
Have looked all around for tabs for this, what I have I know isn't perfect (far from it 
but hopefully someone will tab it out correctly for me out of pity.


-------------------------------------------------------------------------------
                             Save Myself - Willy Mason
-------------------------------------------------------------------------------
Tabbed by: Stevie Harper
Email: Dark_linkoc@hotmail.com

Tuning:

e|---0-----0-----X-----X---------------------------------------------------------|
B|---5-----3-----X-----X---------------------------------------------------------|
G|---0-----0-----5-----4---------------------------------------------------------|
D|---X-----X-----X-----X---------------------------------------------------------|
A|---5-----5-----X-----X---------------------------------------------------------|
E|---3-----3-----5-----3---------------------------------------------------------|

Afriad working out the rhythm is up to you, it's not too difficult though
Suggest correction
Give kudos to tab author, rate the tab!
1 2 3 4 5
comments
print report bad tab
guest
You may want to rate the tab now too:
select rating
Wanna post a correction for this tab? Suggest correction