Oops, an error
Loading. Please wait.

The World That I Wanted Tab

2,552 views 1 this week
1 commentread comment
1 2 3 4 5
please rate
add to favorites
launch autoscroll
font size
0
reset
how to read this tab
guitar tuner
Autoscroll
slow
fast
+/-
esc
set tempo
stop
Help us to improve Ultimate-Guitar.com Take our survey!
×
----------------------------------------------------------------------------
                             The World That I Wanted 
                                  -Willy Mason
----------------------------------------------------------------------------

Standard Tuning:EADGBe

This is a great song and it is such a pity that there are no other tabs out there; 
this is not perfect but its a start..

This song is composed of a fingerpicked chord progression which repeats throughout 
the intro verse and chorus with slight variations. 

Main Progression:  
e|---------------------------------------------------------------|
B|--------8-----------------------------0------------------------|
G|----0-------0----0-----0---------7--------7---(0)----(0)-------|
D|------9----------------------------5---------------------------|
A|-10-----------10----------9---7-------------5------5-----7-----|
E|--------------------10-----------------------------------------|

Verse 1:
He's the kind of guy that's always afraid of affection,
And when the walls closed around,
He would always respond with agression.
But he woke up today with a pain in his head,
Remembered a dream, Oh what was it they said.

Chorus:
Oh, this was the world that I wanted.
Hey oh, this was the world that I wanted.

Verse 2:
Many years ago he was hungry for father's attention,
But dad was alone, his disease unspoken, unmentioned.
And so the boy grew tall with these things around his head,
When his asked mom's advice, she silently said Oh,

Chorus:
Your father got all that he wanted.
Hey oh, your father got all that he wanted.

Bridge:
the bridge is strummed, for  strumming pattern listen to song
e|--0---10----------------------3------|
B|--8---10----------------------3------| 
G|--0---11----------------------0------|  
D|--9---12----------------------0------|
A|--10--12----------------------x------|
E|--0---10---8--10--7--8--5--7--3------|

Verse 3:
He steps onto the porch with a cigarette and a briefcase.
And remembering dad he prepares to argue his case.
Old woman he says, you should have left long ago.
Your friends are all dead, it's not worth it you know.
 
Chorus:
And she smiles, you know this was the life that I wanted.
And she smiles, you know this was the life that I wanted.

Verse 4:
He never thought that he'd cry when his father was finally laid down,
Never thought that he'd cry, when his friends were all gathered around,
But he watched as the old man lay down in the earth,
And he looked all around for a sign of his worth.
Then he cried, whoa daddy what was it you wanted.
Then he cried, whoa daddy what was it you wanted. 

09/02/11
Suggest correction
Give kudos to tab author, rate the tab!
1 2 3 4 5
comments
print report bad tab
1 comment total.
0 reply
hmf 10 wrote on February 23 2011, 11:35 am

awsome dude thnx a lot, feels good that I´m not the only one who listens to willy:)

guest
You may want to rate the tab now too:
select rating
Please do not post tabs as comments. Select "correction" instead!