Oops, an error
Loading. Please wait.

When The River Moves On Tab

635 views 3 this week
no commentswrite comment
1 2 3 4 5
please rate
add to favorites
launch autoscroll
font size
0
reset
how to read this tab
guitar tuner
Tab Pro tools
  • play this tab
  • loop segment
  • change instrument
  • show fretboard
  • metronome
Autoscroll
slow
fast
+/-
esc
set tempo
stop
Contributor
Difficulty
Tuning
novice
D A D G B E
-------------------------------------------------------------------------------
                    When The River Moves On - Willy Mason
-------------------------------------------------------------------------------
Tabbed by: Tomkatt
Email: Ewokarmy@hotmail.com

Tuning: D A D G B E

Intro:


e|------------------------------------3/5\3---------------------------------|
B|------------------------------------2/5\3---------------------------------|
G|--------------------------------------------------------------------------|
D|-----2p0--------------------2p0-------------------------------------------|
A|-0h2--------------------0h2-----------------------------------------------|
D|---------7\5---3-0h3h5----------7\5-------8-8-7-5-------------------------|

Main Riff:


e|--------------------------------------------------------------------------|
B|--------------------------------------------------------------------------|
G|--------------------------------------------------------------------------|
D|--------------------------------------------------------------------------|
A|--------------------------------------------------------------------------|
D|-5-0h3h5-5-0h3h5--5-0h3h5-5-0h3h5-5-0h3h5-5-0h3h5-5-0h3h5-(lots and lots)-|

Chorus:

e|--------------------------------------------------------------------------|
B|--------------------------------------------------------------------------|
G|--------------------------------------------------------------------------|
D|---------7---7---7---7---7---7---7---7/9----------------------------------|
A|--------------------------------------------------------------------------|
D|-5-7-9-7---7---7---7---7---7---7-----7/9\5-0h3h5-5-0h3h5-5-0h3h5-5-0h3h5-5|

e|--------------------------------------------------------------------------|
B|--------------------------------------------------------------------------|
G|--------------------------------------------------------------------------|
D|---------7---7---7---7---7---7---7---7/9----------------------------------|
A|--------------------------------------------------------------------------|
D|-5-7-9-7---7---7---7---7---7---7-----7/9\5-0h3h5-5-0h3h5-5-0h3h5-5-0h3h5-5|


That's all I got! There is more guitar in the song but that's the main line. The notes 
D can be barred to make power chords as you please.

Enjoy!

x
comments
We did not receive enough feedback on this tab! Please rate:
print report bad tab
1 2 3 4 5
I want to post or [tab]
guest
You may want to rate the tab now too:
select rating
Please do not post tabs as comments. Select "correction" instead!