Oops, an error
Loading. Please wait.

Ninety Nine And A Half tab

61 views 3 this week
no commentswrite comment
1 2 3 4 5
3 more votes to show rating
add to favorites
×
Save as Personal and add changes to this tab that will be seen only by you. Learn more ›
×
You can save this tab as Personal to edit and correct it or add notes. All changes will be seen only by you. Learn more »
launch autoscroll
font size
0
reset
how to read this tab
guitar tuner
edit
Autoscroll
slow
fast
+/-
esc
set tempo
stop
[Intro]

e|-----------------------------------------------------------------|
B|-----------------------------------------------------------------|
G|-----------------------------------------------------------------|
D|---12--12--12--12---/12------------------------------------------|
A|-----------------------------------------------------------------|
E|-0---0---0---0---------------------------------------------------|

               
   E7sus            Bbdim/E        G           A
e|-----------------------------------------------------------------|
B|-3-3-3-3-3-3-3---2-2-2-2-2-2-2---3-3-3-3-3---5-5-5-5-5-----------|
G|-1-1-1-1-1-1-1---3-3-3-3-3-3-3---4-4-4-4-4---6-6-6-6-6-----------|
D|-0-0-0-0-0-0-1---2-2-2-2-2-2-2---5-5-5-5-5---7-7-7-7-7-----------|
A|-2-2-2-2-2-2-2---------------------------------------------------|
E|-----------------------------------------------------------------|


[Verse]

e|-----------------------------------------------------------------|
B|-3/4/5--5---------------------3/4/5--5-------------------5/8--8--|
G|-5/6/7--7---------5h6--5h6----5/6/7--7---------5h6--5h6--6/9--9--|
D|-4/5/6--6---------5----5------4/5/6--6---------5----5------------|
A|-5/6/7--7---------------------5/6/7--7---------------------------|
E|------------7b8r7------------------------7b8r7-------------------|

e|-----------------------------------------------------------------|
B|-3/4/5--5--------------------------------------------------------|
G|-5/6/7--7----------5h6--5h6--5-5h6-------------------------------|
D|-4/5/6--6----------5----5----5-5---------------------------------|
A|-5/6/7--7--------------------------------------------------------|
E|------------7b8r7------------------------------------------------|


I got to have all your love night and day
Not just a little part but all your heart
Yes, I do, child



[Chorus]

   G7               A7        D7 D#7 E7
e|-----------------------------------------------------------------|
B|-----------------------------3--4--5-----------------------------|
G|-4-4-4-4-4-4-4----6-6-6-6----5--6--7-----------------------------|
D|-x-x-x-x-x-x-x----x-x-x-x----4--5--6-----------------------------|
A|-5-5-5-5-5-5-5----7-7-7-7----5--6--7-----------------------------|
E|-3-3-3-3-3-3-3----5-5-5-5----------------------------------------|

Ninety-nine and a half just won't do.
Oh, no, no, just won't get it.


[Verse]

e|-----------------------------------------------------------------|
B|-3/4/5--5---------------------3/4/5--5-------------------5/8--8--|
G|-5/6/7--7---------5h6--5h6----5/6/7--7---------5h6--5h6--6/9--9--|
D|-4/5/6--6---------5----5------4/5/6--6---------5----5------------|
A|-5/6/7--7---------------------5/6/7--7---------------------------|
E|------------7b8r7------------------------7b8r7-------------------|

e|-----------------------------------------------------------------|
B|-3/4/5--5--------------------------------------------------------|
G|-5/6/7--7----------5h6--5h6--5-5h6-------------------------------|
D|-4/5/6--6----------5----5----5-5---------------------------------|
A|-5/6/7--7--------------------------------------------------------|
E|------------7b8r7------------------------------------------------|


Don' t be led in the wrong direction.
To start this thing off right
A man need a little love and affection
Yes he do, now.


[Chorus]

   G7               A7        D7 D#7 E7
e|-----------------------------------------------------------------|
B|-----------------------------3--4--5-----------------------------|
G|-4-4-4-4-4-4-4----6-6-6-6----5--6--7-----------------------------|
D|-x-x-x-x-x-x-x----x-x-x-x----4--5--6-----------------------------|
A|-5-5-5-5-5-5-5----7-7-7-7----5--6--7-----------------------------|
E|-3-3-3-3-3-3-3----5-5-5-5----------------------------------------|

Ninety-nine and a half just won't do.
Oh, no, no, just won't get it.

[Interlude]

e|-----------------------------------------------------------------|
B|-----------------------------------------------------------------|
G|-----------------------------------------------------------------|
D|---12-11---------------12-11-------------------------------------|
A|-0----------12-11----0----------12-11----------------------------|
E|----------0-------------------0----------------------------------|

[Verse]

We got to bring it all down
Start gettin' it right
We got to stop this messin' around
And keep the thing up tight
Yes we do, now

[Chorus]

   G7               A7        D7 D#7 E7
e|-----------------------------------------------------------------|
B|-----------------------------3--4--5-----------------------------|
G|-4-4-4-4-4-4-4----6-6-6-6----5--6--7-----------------------------|
D|-x-x-x-x-x-x-x----x-x-x-x----4--5--6-----------------------------|
A|-5-5-5-5-5-5-5----7-7-7-7----5--6--7-----------------------------|
E|-3-3-3-3-3-3-3----5-5-5-5----------------------------------------|

Ninety-nine and a half just won't do.
Oh, no, no, just won't get it.


[Outro]

e|-----------------------------------------------------------------|
B|-----------------------------------------------------------------|
G|-----------------------------------------------------------------|
D|---12---12---12---12---12---12---12---12---12---12---------------|
A|-----------------------------------------------------------------|
E|-0----0----0----0----0----0----0----0----0----0------------------|


e|-----------------------------------------------------------------|
B|-3/4/5--5---------------------3/4/5--5-------------------5/8--8--|
G|-5/6/7--7---------5h6--5h6----5/6/7--7---------5h6--5h6--6/9--9--|
D|-4/5/6--6---------5----5------4/5/6--6---------5----5------------|
A|-5/6/7--7---------------------5/6/7--7---------------------------|
E|------------7b8r7------------------------7b8r7-------------------|






************************************

| x   Dead note
| g   Grace note
| (n) Ghost note
| h   Hammer-on
| p   Pull-off
| r   Release
| >   Accented note
| t   Tapping
| b   Bend
| br  Bend release
| pb  Pre-bend
| pbr Pre-bend release
| /   Slide up
| \   Slide down
| ~   Vibrato
| s   Slap
| P   Pop
| PM  Palm mute
| TR  Trill
| N   Tremolo

************************************

            
            
Suggest correction
Creating personal tab
Creating personal tab
You can edit any tab online and save it as your Personal.

You can edit, replace or remove any tab part or add personal notes – all changes will be seen only by you.

Personal tabs can be accessed anytime from any device, even offline.
Learn more »
Give kudos to tab author, rate the tab!
1 2 3 4 5
comments
print report bad tab
guest
You may want to rate the tab now too:
select rating
Wanna post a correction for this tab? Suggest correction