Oops, an error
Loading. Please wait.

Orchard Tab

version 2
version 2

Whole song

  • This tab contains the whole song, except the solo.
85 views 12 this week
no commentswrite comment
1 2 3 4 5
x 4
add to favorites
launch autoscroll
font size
0
reset
how to read this tab
guitar tuner
Autoscroll
slow
fast
+/-
esc
set tempo
stop
Help us to improve Ultimate-Guitar.com Take our survey!
×
Author
Difficulty
Tuning
intermediate
B E A D F# B
About this tab version
This tab contains the whole song, except the solo. Was this info helpful? Yes No
Artist: Windhand
Song: Orchard
Album: Soma
Tuning: B standard (B E A D F# B)


   Riff 1 (0:37-01:20)
B |---------------------------------------------------------------------------|
F#|---------------------------------------------------------------------------| 
D |---------------------------------------------------------------------------| 
A |---------------------------------------------------------------------------| x4
E |--10-10-10/9\10-10/9\10--6-6-6/5\6-6/5\6-----------------------------------|
B |--8--8---8/7\8---8/7\8---4-4-4/3\4-4/3\4-----------------------------------|

   Riff 2 (01:06-01:20)
B |---------------------------------------------------------------------------|
F#|---------------------------------------------------------------------------| 
D |-----------------------------8-----------------------------------8---------| 
A |--8-8h10-10-10-10---8-8h10-10--10----8-8h10-10-10-10---8-8h10-10--10-------| x2
E |---------------------------------------------------------------------------|
B |---------------------------------------------------------------------------|

   Riff 3 (01:21-01:34)
B |--------------------------------|------------------------------------------| 
F#|--------------------------------|------------------------------------------|
D |--------------------------------|------------------------------------------|
A |--------------------------------|------------------------------------------| x1
E |--10-10-10/13-13-13\6-6-6-6\3---|---10-10-10/13-13-13\6-6-6-6-6------------|
B |--8--8---8/11-11-11\4-4-4-4\5---|---8--8---8/11-11-11\4-4-4-4-4------------|

   Riff 1 (1:35-02:04)
B |---------------------------------------------------------------------------|
F#|---------------------------------------------------------------------------|
D |---------------------------------------------------------------------------|
A |---------------------------------------------------------------------------| x4
E |--10-10-10/9\10-10/9\10--6-6-6/5\6-6/5\6-----------------------------------|
B |--8--8---8/7\8---8/7\8---4-4-4/3\4-4/3\4-----------------------------------|

   Riff 2 (02:05-02:18)
B |---------------------------------------------------------------------------|
F#|---------------------------------------------------------------------------| 
D |-----------------------------8-----------------------------------8---------| 
A |--8-8h10-10-10-10---8-8h10-10--10----8-8h10-10-10-10---8-8h10-10--10-------| x2
E |---------------------------------------------------------------------------|
B |---------------------------------------------------------------------------|

   Riff 3 (02:18-02:46)
B |--------------------------------|------------------------------------------| 
F#|--------------------------------|------------------------------------------|
D |--------------------------------|------------------------------------------|
A |--------------------------------|------------------------------------------|
E |--10-10-10/13-13-13\6-6-6-6\3---|---10-10-10/13-13-13\6-6-6-6--------------| x2
B |--8--8---8/11-11-11\4-4-4-4\5---|---8--8---8/11-11-11\4-4-4-4--------------|


   [Solo] (02:47-03:56)


   Riff 4 (3:57-04:39)          
B |---------------------------------------------------------------------------|
F#|---------------------------------------------------------------------------|
D |---------------------------------------------------------------------------|
A |---------------------------------------------------------------------------| x4
E |--10-10-10/13-13-13-13/18-18-18-18-18-18-----------------------------------|
B |--8--8---8/11-11-11-11/16-16-16-16-16-16-----------------------------------|

   Riff 1, (04:39-05:08)
B |---------------------------------------------------------------------------|
F#|---------------------------------------------------------------------------|
D |---------------------------------------------------------------------------|
A |---------------------------------------------------------------------------| x4
E |--10-10-10/9\10-10/9\10--6-6-6/5\6-6/5\6-----------------------------------|
B |--8--8---8/7\8---8/7\8---4-4-4/3\4-4/3\4-----------------------------------|

   Riff 2(05:09-05:22)
B |---------------------------------------------------------------------------|
F#|---------------------------------------------------------------------------|
D |-----------------------------8-----------------------------------8---------|
A |--8-8h10-10-10-10---8-8h10-10--10----8-8h10-10-10-10---8-8h10-10--10-------| x2
E |---------------------------------------------------------------------------|
B |---------------------------------------------------------------------------|

   Riff 3( 05:22-END)                                              last time+
B |--------------------------------|------------------------------|-----------| 
F#|--------------------------------|------------------------------|-----------|
D |--------------------------------|------------------------------|-----------| x4
A |--------------------------------|------------------------------|-----------|
E |--10-10-10/13-13-13\6-6-6-6\3---|---10-10-10/13-13-13\6-6-6-6--|-10--------|
B |--8--8---8/11-11-11\4-4-4-4\5---|---8--8---8/11-11-11\4-4-4-4--|-8---------|


Summary

Riff 1 (0:37-01:20) x4
Riff 2(01:06-01:20) x2
Riff 3( 01:21-01:34) x1
Riff 1 (01:35-02:04) x4
Riff 2(02:05-02:18) x2
Riff 3( 02:18-02:46) x2
- Solo (02:47-03:56)
Riff 4 (3:57-04:39) x4
Riff 1, (04:39-05:08) x4
Riff 2(05:09-05:22) x2
Riff 3( 05:22-END) x4

************************************

| h   Hammer-on
| /   Slide up
| \   Slide down

************************************
Suggest correction
comments
print report bad tab
guest
You may want to rate the tab now too:
select rating
Wanna post a correction for this tab? Suggest correction