Oops, an error
Loading. Please wait.

Two Urns Tab

118 views 6 this week
1 commentread comment
1 2 3 4 5
x 7
add to favorites
launch autoscroll
font size
0
reset
how to read this tab
guitar tuner
Autoscroll
slow
fast
+/-
esc
set tempo
stop
Help us to improve Ultimate-Guitar.com Take our survey!
×
Author
Difficulty
Tuning
novice
C F A# D# G C
About this tab version
The main part of the song. Was this info helpful? Yes No
Artist: Windhand
Song: Two Urns
Tuning: C standard (C F A♯ D♯ G C)
Rhythm guitar


Main riff
e|-----------------------|------------------|-----------|
B|-----------------------|------------------|-----------|
G|-----------------------|------------------|-----------|
D|-----------------------|------------------|-----------|
A|---7-6/7-6/7\6/7-7\6/7-|-10-9/10-9/10\9/10|-10/12-----|
E|---5-4/5-4/5\4/5-5\4/5-|-8--7/8--7/8-\7/8-|-8-/10-----|


Second riff
e|------------------------------------------------------|
B|------------------------------------------------------|
G|------------------------------------------------------|
D|------------------------------------------------------|
A|--7-6/7-3---3-5~-7------------------------------------|
E|--5-4/5-1-0-1-3~-5------------------------------------|

Third riff
e|-----------------|----------|-------------------------|
B|-----------------|----------|-------------------------|
G|-----------------|----------|-------------------------|
D|-----------------|----------|-------------------------|
A|--7-6/7--10-9/10-|-12-11/12-|-15-15-15-15-14/15\14----|
E|--5-4/5--8--7/8--|-10-9-/10-|-13-13-13-13-12/13\12----|

Fourth riff                                 variations
e|----------------------|----------|------------|-------------|
B|----------------------|----------|------------|-------------|
G|----------------------|----------|------------|-------------|
D|----------------------|----------|-/9-10------|-------------|
A|--7\6/7-10\9/10-6\5/6-|-/9-10-7--|-/7-8-10--7-|-/9-10-10-7--|
E|--5\4/5-8-\7/-8-4\3/4-|-/7-8--5--|-------8--5-|-/7-8--10-5--|

Main riff x6
Second riff x4
Main riff x4
Second riff x8
(solo starts)
Main riff x4 - during the solo
Third riff x4 - solo outro
Main riff x6
Second riff x8
*some feedback*
Fourth riff till the end /w variations


************************************

| /   slide up
| \   slide down
| h   hammer-on
| p   pull-off
| ~   vibrato
| +   harmonic
| x   Mute note
| b   Bend
| pb  Pre-bend
| br  Bend release
| pbr Pre-bend release
| brb Bend release bend

************************************
Suggest correction
comments
print report bad tab
1 comment total.
0 reply
brendangeerli 10 Nov 08, 2016 11:26 AM

Sick! Could you tab some more Windhand songs?!?

guest
You may want to rate the tab now too:
select rating
Wanna post a correction for this tab? Suggest correction