Oops, an error
Loading. Please wait.

Come Away September tab

34 views 3 this week
no commentswrite comment
1 2 3 4 5
2 more votes to show rating
add to favorites
×
Save as Personal and add changes to this tab that will be seen only by you. Learn more ›
×
You can save this tab as Personal to edit and correct it or add notes. All changes will be seen only by you. Learn more »
launch autoscroll
font size
0
reset
how to read this tab
guitar tuner
edit
Autoscroll
slow
fast
+/-
esc
set tempo
stop
Author
Difficulty
Come Away September by Windowpane (tab by Moxxidude)

Guitar 1 (Acoustic) - Tuning E ab d g b eb

Guitar 2 (Electric) - Tuning E a d g b e

My rock band students performed this song live in front of a few hundred people back in 2014 as the 
lead singer was a Windowpane fan. I had such trouble figuring out the tuning at first that I almost 
contacted the band to ask them how they played it. But inspiration hit and I figured it out! The tuning is
a little different than I'd ever come across but it works and sounds great! Remember, only the acoustic
guitar is detuned, the electric is regular tuning. Please note the electric guitar part and the guitar
solo can be found at the end of the acoustic tab. Enjoy this great tune!


Guitar 1 Acoustic

[Intro / Verse 1]

eb|-------0-----|-------0-----|-------0-----|-------0--------|
 B|-------0-----|-------0-----|-------0-----|---------0------|
 G|-----3-------|-----5-------|-----1-------|-----1-----1----| X 3
 D|---3---------|---5---------|---1---------|---1------------|
Ab|-2---------2/|-4--------4\-|-0-----------|-0------------0-|
 E|-------------|-------------|-------------|----------------|
                                            “You're in a better place...”
eb|-------0-----|-------0-----|-------0-----|---------0--|--------0---|
 B|-------0-----|-------0-----|-------0-----|---------0--|--------0---|
 G|-----3-------|-----5-------|-----1-------|-----10-----|-----1------|
 D|---3---------|---5---------|---1---------|---10-------|---1--------|
Ab|-2---------2/|-4--------4\-|-0-----------|-9----------|-0----------|
 E|-------------|-------------|-------------|------------|------------|

 
[Chorus Acoustic]

“Come Away September”

eb|-0----------|-0----------|-0----------|-0----------|
 B|-0----------|-0----------|-0----------|-0----------|
 G|-5----------|-1----------|-8----------|-3----------|
 D|-5----------|-1----------|-8----------|-3----------|  X2
Ab|-4----------|-0----------|-7----------|-2----------|
 E|------------|------------|------------|------------|

eb|-0----------|-0----------|-0----------|-0----------|-0----------|
 B|-0----------|-0----------|-0----------|-0----------|-0----------|
 G|-5----------|-6----------|-1----------|-3----------|-3----------|
 D|-5----------|-6----------|-1----------|-3----------|-3----------|
Ab|-4----------|-5----------|-0----------|-2----------|-2----------|
 E|------------|------------|------------|------------|------------|


[Verse]

eb|--------0--|----------0--|---------0--|--------0-------| 
 B|--------0--|----------0--|---------0--|----------0-----| 
 G|------3----|-------5-----|-------1----|------1----1----| X3
 D|----3------|-----5-------|-----1------|----1-----------| 
Ab|-2---------|-2/4---------|-4/0--------|-0------------0-| 
 E|-----------|-------------|------------|----------------| 

eb|--------0--|----------0--|---------0--|-0---------------|
 B|--------0--|----------0--|---------0--|-0---------------|
 G|------3----|-------5-----|-------1----|-10--------------|
 D|----3------|-----5-------|-----1------|-10--------------|
Ab|-2---------|-2/4---------|-4/0--------|-9---------------|
 E|-----------|-------------|------------|-----------------|
                                         STOP!
                                                                                 
[Chorus]

“Come Away September”

eb|-0----------|-0----------|-0----------|-0----------|
 B|-0----------|-0----------|-0----------|-0----------|
 G|-5----------|-1----------|-8----------|-3----------|
 D|-5----------|-1----------|-8----------|-3----------|  X2
Ab|-4----------|-0----------|-7----------|-2----------|
 E|------------|------------|------------|------------|

eb|-0----------|-0----------|-0----------|-0----------|-0----------|
 B|-0----------|-0----------|-0----------|-0----------|-0----------|
 G|--5---------|-6----------|-1----------|-3----------|-3----------|
 D|--5---------|-6----------|-1----------|-3----------|-3----------|
Ab|-4----------|-5----------|-0----------|-2----------|-2----------|
 E|------------|------------|------------|------------|------------|

 
[Bridge]

Listen to strumming 

eb|-0----------|-0----------|-0----------|-0----------|
 B|-0----------|-0----------|-0----------|-0----------|
 G|-8----------|-8----------|-6----------|-6----------| X 2
 D|-8----------|-8----------|-6----------|-6----------|
Ab|-7----------|-6----------|-5----------|-4----------|
 E|------------|------------|------------|------------|

Guitar solo rhythm chords

eb|-0----------|-0----------|-0----------|-0----------|-0----------|-0----------|
 B|-0----------|-0----------|-0----------|-0----------|-0----------|-0----------|
 G|-5----------|-8----------|-1----------|-1----------|-10---------|-13---------|
 D|-5----------|-8----------|-1----------|-1----------|-10---------|-13---------|
Ab|-4----------|-7----------|-0----------|-0----------|-9----------|-12---------|
 E|------------|------------|------------|------------|------------|------------|


[Chorus]

“Come Away September”

eb|-0----------|-0----------|-0----------|-0---------|
 B|-0----------|-0----------|-0----------|-0---------|
 G|-8----------|-3----------|-5----------|-1---------|
 D|-8----------|-3----------|-5----------|-1---------|
Ab|-7----------|-2----------|-4----------|-0---------|
 E|------------|------------|------------|-----------|

eb|-0----------|-0----------|-0----------|-0---------|
 B|-0----------|-0----------|-0----------|-0---------|
 G|-8----------|-3----------|-5----------|-1---------|
 D|-8----------|-3----------|-5----------|-1---------|
Ab|-7----------|-2----------|-4----------|-0---------|
 E|------------|------------|------------|-----------|
                                          End
eb|-0----------|-0----------|-0----------|-0----------|
 B|-0----------|-0----------|-0----------|-0----------|
 G|-5----------|-6----------|-1----------|-3----------|
 D|-5----------|-6----------|-1----------|-3----------|
Ab|-4----------|-5----------|-0----------|-2----------|
 E|------------|------------|------------|------------|

*************************************************************************************************************


Guitar 2 Electric


No electric guitar in verse (starts at end of verse) 

 “You're in a better place”
e|-------------|-------------|
B|-------------|-------------|
G|-------------|-------------|
D|-------------|-------------|
A|-3-----------|-6-----------|
E|-1-----------|-4-----------|


[Chorus]

e|-------------|-------------|-------------|-------------|
B|-------------|-------------|-------------|-------------|
G|-------------|-------------|-------------|-------------|
D|-------------|-------------|-8-----------|-------------| X 2
A|-10----------|-6-----------|-6-----------|-8-----------|
E|-8-----------|-4-----------|-------------|-6-----------|

e|-------------|-------------|-------------|-------------|
B|-------------|-------------|-------------|-------------|
G|-------------|-------------|-------------|-------------|
D|-------------|-------------|-------------|-------------|
A|-10----------|-11----------|-6-----------|-8-----------|
E|-8-----------|-9-----------|-4-----------|-6-----------|

No electric guitar in verse (starts at end of verse) 

 “You're in a better place”
e|-------------|
B|-------------|
G|-------------|
D|-------------|
A|-3-----------|
E|-1-----------|


[Chorus]

e|-------------|-------------|-------------|-------------|
B|-------------|-------------|-------------|-------------|
G|-------------|-------------|-------------|-------------|
D|-------------|-------------|-8-----------|-------------| X 2
A|-10----------|-6-----------|-6-----------|-8-----------|
E|-8-----------|-4-----------|-------------|-6-----------|

e|-------------|-------------|-------------|-------------|-------------|
B|-------------|-------------|-------------|-------------|-------------|
G|-------------|-------------|-------------|-------------|-------------|
D|-------------|-------------|-------------|-------------|-------------|
A|-10----------|-11----------|-6-----------|-8-----------|-8-----------|
E|-8-----------|-9-----------|-4-----------|-6-----------|-6-----------|


[Bridge]

(Octaves)

e|-------------|-------------|-------------|-------------|
B|-------------|-------------|-------------|-------------|
G|-8-----------|-7-----------|-6-----------|-5-----------|
D|-x-----------|-x-----------|-x-----------|-x-----------| X 2
A|-6-----------|-5-----------|-4-----------|-3-----------|
E|-------------|-------------|-------------|-------------|


[Guitar solo]

e|--------|---------------------------------------|---------------------------|
B|--------|--------11--11--------------8----------|-------------------------8-|
G|-/10~~~~|-10b(12)------10r-12p10-----8----------|-------------------------8-|
D|--------|------------------------12-----10-8-10-|--------------------8-10---|
A|--------|---------------------------------------|-6h8p6h8-------------------|
E|--------|---------------------------------------|-----------8p6h8-----------|

e|----------------------------------------------------13b-|
B|-------------16------------------------------18---------|
G|-15b---15b---15b----17b--17r-17----------15-----15------|
D|----------------------------------19--------------------|
A|--------------------------------------------------------|
E|--------------------------------------------------------|


[Chorus]

e|-------------|-------------|-------------|-------------|
B|-------------|-------------|-------------|-------------|
G|-------------|-------------|-------------|-------------|
D|-8-----------|-------------|-------------|-------------| x 2
A|-6-----------|-8-----------|-10----------|-6-----------|
E|-------------|-6-----------|-8-----------|-4-----------|


e|-------------|-------------|-------------|-------------|-------------|
B|-------------|-------------|-------------|-------------|-------------|
G|-------------|-------------|-------------|-------------|-------------|
D|-------------|-------------|-------------|-------------|-8-----------|
A|-10----------|-11----------|-6-----------|-8-----------|-6-----------|
E|-8-----------|-9-----------|-4-----------|-6-----------|-------------|


***********************
|b   bend
|r   release bend
|/   slide
|h   hammer on
|p   pull off
|~   vibrato
|x   dead note
|(n) ghost note
**********************
Suggest correction
Creating personal tab
Creating personal tab
You can edit any tab online and save it as your Personal.

You can edit, replace or remove any tab part or add personal notes – all changes will be seen only by you.

Personal tabs can be accessed anytime from any device, even offline.
Learn more »
Give kudos to tab author, rate the tab!
1 2 3 4 5
comments
print report bad tab
guest
You may want to rate the tab now too:
select rating
Wanna post a correction for this tab? Suggest correction