Oops, an error
Loading. Please wait.

Origins And Endings intro tab

version 1
version 1

Intro

Interactive

2,868 views 1 this week
2 commentsread comments
1 2 3 4 5
2 more votes to show rating
add to favorites
×
Save as Personal and add changes to this tab that will be seen only by you. Learn more ›
×
You can save this tab as Personal to edit and correct it or add notes. All changes will be seen only by you. Learn more »
launch autoscroll
font size
0
reset
how to read this tab
guitar tuner
edit
Autoscroll
slow
fast
+/-
esc
set tempo
stop
Tabbed by: Cameron Belly Button Eater
Email:

Tuning: standard

i thought id tab it cus i couldnt find it anywhere.

e|---------------------------------------------------------------------------|
B|---------------------------------------------------------------------------|
G|--5-4~--------------------------5-4~---------------------------------------|
D|--5-4~--------------------------5-4~---------------------------------------|
A|--3-2~--------------------------3-2~---------------------------------------|
E|---------------------------------------------------------------------------|
pm
     
e|---------------------------------------------------------------------------|
B|---------------------------------------------------------------------------|
G|--5-4----------------------------------------------------------------------|
D|--5-4----------------------------------------------------------------------|
A|--3-2-2-2-2--2-22222-2-22222-2-2-2-----------------------------------------|
E|------0-0-0--0-00000-0-00000-0-0-0-----------------------------------------|x 
pm      . . .  . ..... . ..... . . .
play that a couple times. 

e|---------------------------------------------------------------------------|
B|---------------------------------------------------------------------------|
G|---------------------------------------------------------------------------|
D|-----------10/9---7/9---13/12---12/9-----------10/9------------------------|
A|---------------------------------------------------------------------------|
E|-0-000-000-8-/7-0-5/7-0-11/10-0-10/7-0-000-000-8-/7-000-111-333-444-333----|
pm . ... ...      .     .       .      . ... ...      ... ... ... ... ...

Your on your own...


            
            
Suggest correction
Creating personal tab
Creating personal tab
You can edit any tab online and save it as your Personal.

You can edit, replace or remove any tab part or add personal notes – all changes will be seen only by you.

Personal tabs can be accessed anytime from any device, even offline.
Learn more »
Give kudos to tab author, rate the tab!
1 2 3 4 5
comments
print report bad tab
2 comments total.
0 reply
Tony Alley 10 Jun 22, 2009 08:20 PM

E----------------------------
B----------------------------
G----------------------------
D------------0-2-0-----------
A-----0-2-3--------3-2-0-----
E-0-1--------------------1-0-

E-----------------------------------------------
B-----------------------------------------------
G-----------------------------------------------
D-3-2~---3-2~---3-2-------------------------3-2-
A-3-2~---3-2~---3-2-222-2-22222-2-22222-222-3-2-
E-1-0~---1-0~---1-0-000-0-00000-0-00000-000-1-0-

E------------------------
B------------------------
G------------------------
D-9\7/9~-7/109-9\7-7-7\6-
A------------------------
E-7\5/7~-5/8\7-7\5-5-5\4-

0 reply
Tony Alley 10 Jun 22, 2009 08:45 PM

Oops, I ****ed up

The keyboard intro goes.....

E----------------------------
B----------------------------
G----------------------------
D------------2-3-2-----------
A-----0-2-3--------3-2-0-----
E-0-1--------------------1-0-

guest
Wanna post a correction for this tab? Suggest correction