Oops, an error
Loading. Please wait.

Reloaded Bass Tab

version 1
version 1

Whole song

Interactive

2,074 views 3 this week
no commentswrite comment
1 2 3 4 5
please rate
add to favorites
launch autoscroll
font size
0
reset
guitar tuner
Tab Pro tools
  • play this tab
  • loop segment
  • change instrument
  • show fretboard
  • metronome
Autoscroll
slow
fast
+/-
esc
set tempo
stop
|Reloaded intro by Winds of Plague|


tabbed by Mizzle Gizzle



                                 Tonight               the world is
G|-------------------------------------------------------------------------|
D|-------------------------------------------------------------------------|
A|-------------------------------------------------------------------------|
D|-----------------------------------------------------444-4-4--111-1-1-1--|




   Ours
G|-------------------------------------------------------------------------|
D|-------------------------------------------------------------------------|
A|-------------------------------------------------------------------------|
D|-0-------------------------------------------------444-4-4--111-1-1-1----|




      We got the world...
G|------------------------------------|
D|------------------------------------|
A|----------------------------3-4-5---|
D|----0-0-1-0-0-4-0-0-1-0-0-0---------| x 3



G|------------------------------------|
D|------------------------------------|
A|-1-1-1-1-1-1-1-1-0-0-0--3--4--5-----|
D|------------------------------------|


     Were not strangers...
G|------------------------------------|
D|------------------------------------|
A|-----------------------------3-4-5--|
D|---0000-1-0000-4-0000-1-0000--------| x 3



G|------------------------------------|
D|------------------------------------|
A|-1-1-1-1-1-1-1-1-0-0-0--3--4--5-----|
D|------------------------------------|
comments
We did not receive enough feedback on this tab! Please rate:
print report bad tab
1 2 3 4 5
I want to post or [tab]
guest
You may want to rate the tab now too:
select rating
Please do not post tabs as comments. Select "correction" instead!