Oops, an error
Loading. Please wait.

Unbreakable intro tab

version 1
version 1

Intro

Interactive

5,596 views 1 this week
6 commentsread comments
1 2 3 4 5
1 last vote to show rating
add to favorites
×
Save as Personal and add changes to this tab that will be seen only by you. Learn more ›
×
You can save this tab as Personal to edit and correct it or add notes. All changes will be seen only by you. Learn more »
launch autoscroll
font size
0
reset
how to read this tab
guitar tuner
edit
Autoscroll
slow
fast
+/-
esc
set tempo
stop
I couldnt find this anywhere else, so i tabbed it myself and im putting it up, here it is:

Drop D Tuning

E-------------------------------------------------------------------------|
B-------------------------------------------------------------------------|
G-------------------------------------------------------------------------|
D---------------------8-7---------7-8-10--8-8-----------------------------|
A--------7---8---10-------10-8-10---------8-8-7-7-7-7-8-8-8-8-10-10-10-10-|
D----0-0---0---0----0---------------------8-8-----------------------------|


E------------------------------------------------------------------------|
B------------------------------------------------------------------------|
G----------------------------------------9-7-----------------------------|
D---7-7--------7-8-10------------------------10-8-10-8-7------8-8-10-8-7-|
A---7-7-7-8-10--------------7---8---10-------------------10---8-8--------|
D---7-7-----------------0-0---0---0----0----------------------8-8--------|


E------------------------------------------------------------------------|
B------------------------------------------------------------------------|
G------------------------------------------------------------------------|
D-----------7-7--------7-8-7-------------------8-7---------7-8-10--8-8---|
A----10-8-7-7-7-7-8-10------------7---8---10-------10-8-10---------8-8---|
D-----------7-7---------------0-0---0---0----0---------------------8-8---|

         Sweep Pick |=============================|
E----------------------------------12-17-12------------------------------|
B-------------------------------14----------14---------------------------|
G----------------------------14----------------14------------------------|
D---10-8-7----------------14---------------------------------------------|
A----------10-8-7---12-16------------------------------------------------|
D------------------------------------------------------------------------|

            
            
Suggest correction
Creating personal tab
Creating personal tab
You can edit any tab online and save it as your Personal.

You can edit, replace or remove any tab part or add personal notes – all changes will be seen only by you.

Personal tabs can be accessed anytime from any device, even offline.
Learn more »
Give kudos to tab author, rate the tab!
1 2 3 4 5
comments
print report bad tab
6 comments total. Showing first comments.
0 reply
Llamai 10 Mar 24, 2008 08:11 AM

Do the rest!!! the middle part is far too epic

0 reply
Swimmist 10 Mar 30, 2008 05:23 PM

hey i made this tab and trust me i would but i just cant hear the rythems in the background behind the keyboards and cymbals and bass. All i could tell you is the note they're riding on but i couldnt tell you any subtle little notes in there. i can hear a mean bass line under almost anything but im terrible at hearing background guitar......and hey, if you can play this up to speed your already doing better than me on this song ;)

0 reply
WithRoyalBlood 10 Jul 16, 2008 11:10 AM

Sounds spot on to me, man.

Good job.

guest
Wanna post a correction for this tab? Suggest correction