Oops, an error
Loading. Please wait.

The Meadow Tab

319 views 1 this week
no commentswrite comment
1 2 3 4 5
please rate
add to favorites
launch autoscroll
font size
0
reset
how to read this tab
guitar tuner
Autoscroll
slow
fast
+/-
esc
set tempo
stop
Help us to improve Ultimate-Guitar.com Take our survey!
×
Author
-------------------------------------------------------------------------------
                             The Meadow - Windsor Airlift
-------------------------------------------------------------------------------
Tabbed by: Private
Email: private
Description: The first tab I've made for this site. I'm pretty sure it's 100% accurate
because it's not a very hard song. Also note that I like to play this song while I have a
capo on the first fret so I don't have to jump up and down with my hand for the snares 
that are played on the first fret. I hope you like it.

Tuning: Standard Tuning (EADGBE). (I put a capo on the first fret)

Intro:
e|---------------------------------------------------------------------------|
B|---------------------------------------------------------------------------|
G|------2--------------------------2--------------------------5--------------|
D|-----------5-----3----------------------5------3----------3----------------|
A|---3------------------------3---------------------------5------------------|
E|-1------1-----1----------1----------1-------1------------------------------|

e|---------------------------------------------------------------------------|
B|---------------------------------------------------------------------------|
G|-----------------------------------------------2---------------------------|
D|--------------3--------------2---3-------------------5-----3---------------|
A|--1---3---5----------\3--3-----------------3-------------------------------|
E|----------------------------------------1---------1-----1------------------|

e|--------1------------------------------------------------------------------|
B|---------------5-------1---------------------------------------------------|
G|--------2--------------------------5-----5---------------------------------|
D|---------------5-------3---------3------------------------3---------2--3---|
A|-----3-------------------------5-------5--------1--3--5------\3--3---------|
E|--1---------1-------1------------------------------------------------------|


Instrumentals join in:
e|--------------------------------1------------------------------------------|
B|---------------------------------------5-----1-----------------------------|
G|-------2------------------------2-----------------------5--3--2------------|
D|-------------5-----2-------------------5-----3--------3----------3----3----|
A|----3------------------------3----------------------5---------------5------|
E|--1-------1-----1---------1---------1------1-------------------------------|

e|-------------------------------|
B|-------------------------------|
G|-------------------------------|
D|------------3-----------2---3--|    2X
A|--1--3--5--------\3--3---------|
E|-------------------------------|


Solo part (plays softly in the background):
e|------1-----1----5------------1------8-----5--------1-----------1------1---|
B|---3-----3------------6----5--------------------8------------3------3------|
G|---------------------------------------------------------------------------|
D|---------------------------------------------------------------------------|
A|---------------------------------------------------------------------------|
E|---------------------------------------------------------------------------|

e|---5-----------------------------------------------------------------------|
B|--------6----5---6-------6---5---------------------------------------------|
G|---------------------5-----------5-----------------------------------------| 2x
D|---------------------------------------------------------------------------|
A|---------------------------------------------------------------------------|
E|---------------------------------------------------------------------------|



Part that plays through the piano:
e|---------------------------------------------------------------------------|
B|---------------------------------------------------------------------------|
G|--------5---3--2--3--------------------------------------------------------|
D|-----3----------------3-------------------3--------5---5----3--------------| 14x
A|--5-------------------------1----3----5-------3----------------------------|
E|---------------------------------------------------------------------------|

Outro part 1:
e|--------------------------------1------------------------------------------|
B|---------------------------------------5-----1-----------------------------|
G|-------2------------------------2-----------------------5--3--2--3---------|
D|-------------5-----2-------------------5-----3--------3------------3-------|
A|----3------------------------3----------------------5----------------------|
E|--1-------1-----1---------1---------1------1-------------------------------|

e|-------------------------------|
B|-------------------------------|
G|-------------------------------|
D|------------3-----------2---3--|    2X
A|--1--3--5--------\3--3---------|
E|-------------------------------|

Outro part 2 (finale):
e|------1-----1----5------------1------8-----5--------1-----------1------1---|
B|---3-----3------------6----5--------------------8------------3------3------|
G|---------------------------------------------------------------------------|
D|---------------------------------------------------------------------------|
A|---------------------------------------------------------------------------|
E|---------------------------------------------------------------------------|

e|---5-----------------------------------------------------------------------|
B|--------6----5---6-------6---5---------------------------------------------|
G|---------------------5-----------5-----------------------------------------| 4x
D|---------------------------------------------------------------------------|
A|---------------------------------------------------------------------------|
E|---------------------------------------------------------------------------|

************************************

| /   slide up
| \   slide down
| h   hammer-on
| p   pull-off
| ~   vibrato
| +   harmonic
| x   Mute note
| b   Bend
| pb  Pre-bend
| br  Bend release
| pbr Pre-bend release
| brb Bend release bend

************************************
Suggest correction
What's this?
You can suggest a correction to this tab. Community and Mods will review your correction and vote to approve or reject it.
comments
We did not receive enough feedback on this tab! Please rate:
print report bad tab
1 2 3 4 5
guest
You may want to rate the tab now too:
select rating
Please do not post tabs as comments. Select "correction" instead!