Oops, an error
Loading. Please wait.

The Melody Of A Fallen Tree Tab

1,979 views 3 this week
no commentswrite comment
1 2 3 4 5
please rate
add to favorites
launch autoscroll
font size
0
reset
how to read this tab
guitar tuner
Autoscroll
slow
fast
+/-
esc
set tempo
stop
Help us to improve Ultimate-Guitar.com Take our survey!
×
Author
-------------------------------------------------------------------------------
                            MELODY OF A FALLEN TREE - Windsor for the Derby
-------------------------------------------------------------------------------
Tabbed by: lalalorraine
Email: theltracks@gmail.com

off "We Fight Till Death" (2004) by Windsor for the Derby
http://www.windsorforthederby.com/

the tab sounds good to me, but corrections are welcomed! please email any suggestions

Tuning: Standard

>Guitar 1 Chords, light strumming

Intro

G

Verse
G                   Em     G

Chorus

G      C      Am       G

*walk the C to Em before the Am

>Guitar 2
 *slide to the notes, it will sound smoother

   :30
   G                      Em                        G
e|--------------------------------------------------------------------------|
B|--------------------------------------------------------------------------|
G|--------------------------------------------------------------------------|
D|----/5---7----9----10----9------/5---7---9---10---9---10---12------14---12|
A|--------------------------------------------------------------------------|
E|--------------------------------------------------------------------------|
   G                      Em                        G
e|-------------------------------------------------------------------------------|
B|-------------------------------------------------------------------------------|
G|---/5---7----9----10----9---------5--7---9---10---12---10--9--10-12-10-12-10-9-|
D|-------------------------------------------------------------------------------|
A|-------------------------------------------------------------------------------|
E|-------------------------------------------------------------------------------|

>Guitar 3 (tabbed Synth)

1:12
   G                           C                                Em
e|---10---10---10---10-10---10---12-----12-----12-----12--12-----10----------|
B|--8--8-8--8-8--8-8--8--8-8---13--13-13--13-13--13-13--13--13-12--12--------|
G|---------------------------------------------------------------------------|
D|---------------------------------------------------------------------------|
A|---------------------------------------------------------------------------|
E|---------------------------------------------------------------------------|
   Am                              G
e|8-----8-----8-----8-----8-----8--10---10---10---10---10-10-|
B|-10-10-10-10-10-10-10-10-10-10--8--8-8--8-8--8-8--8-8--8---|
G|-----------------------------------------------------------|
D|-----------------------------------------------------------|
A|-----------------------------------------------------------|
E|-----------------------------------------------------------|
   G
e|----10---10---10---10-10---10------| bridge
B|---8--8-8--8-8--8-8--8--8-8--------|
G|-----------------------------------|
D|-----------------------------------|
A|-----------------------------------|
E|-----------------------------------|

>2:52 Guitar 4 is in there doing something with

e|-----------------------------------------| but it's hard to hear what notes
B|----8--7---8---7----8--7----8--7---------| are all being played.
G|-----------------------------------------|
D|-----------------------------------------|
A|-----------------------------------------|
E|-----------------------------------------|

>5:22 Solo

e|-----------------------------------------------------------------------------------|
B|-----------------------------------------------------------------------------------|
G|--7--7--7--7--9-9-7---7--7--7--9-9-7---7--7--7--5-4-5---5-4-4-5-4-7--7-7-7--9-9-7--|
D|-----------------------------------------------------------------------------------|
A|-----------------------------------------------------------------------------------|
E|-----------------------------------------------------------------------------------|

e|---------------------------------------------------------------------------|
B|---------------------------------------------------------------------------|
G|--7--7--7--9-9-7---7--7--5-4-5-4--4-5-4-5-4-2-2-2-4-4-4-5-4-2--------------|
D|---------------------------------------------------------------------------|
A|---------------------------------------------------------------------------|
E|---------------------------------------------------------------------------|

the solo continues but he just plays around with the G string, and then another guitar 
with him.

Song order

0:00 intro
0:30 Verse/guitar 2
1:12 Chorus/guitar 3
1:44 bridge
2:03 verse/guitar 2
2:52 chorus/ guitar 3/4
3:44 verse/guitar 2
4:30 chorus/ guitar 3/4
5:03 bridge
5:22 solo over bridge

fade out with bridge riff

long song, but simple parts. hopefully someone can expand on the solo and/or make any 
thanks~


************************************

| /   slide up
| \   slide down
| h   hammer-on
| p   pull-off
| ~   vibrato
| +   harmonic

|

************************************
Suggest correction
What's this?
You can suggest a correction to this tab. Community and Mods will review your correction and vote to approve or reject it.
comments
We did not receive enough feedback on this tab! Please rate:
print report bad tab
1 2 3 4 5
guest
You may want to rate the tab now too:
select rating
Please do not post tabs as comments. Select "correction" instead!