Oops, an error
Loading. Please wait.

Miles Away Tab

version 1
version 1

Whole song

Interactive

15,030 views 24 this week
no commentswrite comment
1 2 3 4 5
accurate
x 3
add to favorites
launch autoscroll
font size
0
reset
how to read this tab
guitar tuner
Autoscroll
slow
fast
+/-
esc
set tempo
stop
Help us to improve Ultimate-Guitar.com Take our survey!
×
Author
-------------------------------------------------------------------------------
                             Miles Away - Winger
-------------------------------------------------------------------------------
Tabbed by: Dain Carr

Tuning: Standard

Intro and Verse:
Keyboards

Pre-Chorus
        Sometimes...                 I reach out...
e|----------------------------------------------------|
B|------5--6-3v---------------------------5--6-6v-----|
G|--3h5------------------------------3h5--------------|
D|----------------------------------------------------|
A|----------------------------------------------------|
E|----------------------------------------------------|

Chorus:
    Miles away..                        I just can't...
e|--3---5--5--------1---1-1--3-3-----|--3---5-5--3--1---1--3-----------------|
B|--5---6--6--------3---1-1--5-5-----|--5---6-6--5--3---1--5------6--5-------|
G|--5---7--7--------3---2-2--5-5-----|--5---7-7--5--3---2--5----------5------|
D|--5---7--7--------3---3-3--5-5-----|--5---7-7--5--3---3--5-----------5-----|
A|--3---5--5--------1---3-3--3-3-----|--3---5-5--3--1---3--3-----------------|
E|--3---5--5--------1---1-1--3-3-----|--3---5-5--3--1---1--3-----------------|

e|--3---5--5--------1---1-1--3-3-----|--3---5-5--3--1------1-----|
B|--5---6--6--------3---1-1--5-5-----|--3---6-6--5--3------1-----|
G|--5---7--7--------3---2-2--5-5-----|--4---7-7--5--3------2-----|
D|--5---7--7--------3---3-3--5-5-----|--5---7-7--5--3------3-----|
A|--3---5--5--------1---3-3--3-3-----|--5---5-5--3--1------3-----|
E|--3---5--5--------1---1-1--3-3-----|--3---5-5--3--1------1-----|

Bridge:

e|--1-1-3-3-----3---3-------1-0-1-1-----1---1-----|
B|--1-3-5-5-----3---3-------1-1-3-3-----1---1-----|
G|--2-3-5-5-----4---4-------2-2-3-3-----2---2-----|
D|--3-3-5-5-----5---5-------3-2-3-3-----3---3-----|
A|--3-1-3-3-----5---5-------3-0-1-1-----3---3-----|
E|--1-1-3-3-----3---3-------1-0-1-1-----1---1-----|

e|--1-1-3-3-----3---3-------1-0-1-1-----3---3-3-----|
B|--1-3-5-5-----3---3-------1-1-3-3-----5---5-5-----|
G|--2-3-5-5-----4---4-------2-2-3-3-----5---5-5-----|
D|--3-3-5-5-----5---5-------3-2-3-3-----5---5-5-----|
A|--3-1-3-3-----5---5-------3-0-1-1-----3---3-3-----|
E|--1-1-3-3-----3---3-------1-0-1-1-----3---3-3-----|

Solo rhythm:

e|--3---5--5--------1---1-1--3-3-----|--3---5-5--3--1---1--3-----------------|
B|--5---6--6--------3---1-1--5-5-----|--5---6-6--5--3---1--5------6--5-------|
G|--5---7--7--------3---2-2--5-5-----|--5---7-7--5--3---2--5----------5------|
D|--5---7--7--------3---3-3--5-5-----|--5---7-7--5--3---3--5-----------5-----|
A|--3---5--5--------1---3-3--3-3-----|--3---5-5--3--1---3--3-----------------|
E|--3---5--5--------1---1-1--3-3-----|--3---5-5--3--1---1--3-----------------|

e|--3---5--5--------1---1-1--3-3-----|--3---5-5--3--1------1-----|
B|--5---6--6--------3---1-1--5-5-----|--3---6-6--5--3------1-----|
G|--5---7--7--------3---2-2--5-5-----|--4---7-7--5--3------2-----|
D|--5---7--7--------3---3-3--5-5-----|--5---7-7--5--3------3-----|
A|--3---5--5--------1---3-3--3-3-----|--5---5-5--3--1------3-----|
E|--3---5--5--------1---1-1--3-3-----|--3---5-5--3--1------1-----|

Solo lead:

e|---------------------------------|-------------------------------------------------|
B|---------------------------------|--------8---8h10--6------------------------------|
G|------5-7-5v--------5------------|------5--------------5--5h7p5--------------------|
D|--5/7----------5/7----5h7p5------|--5/7--------------------------8---7h8p7--5v-----|
A|--------------------------8v-----|-------------------------------------------------|
E|---------------------------------|-------------------------------------------------|

e|--------------------------------|--------------------------------|
B|-----15-13----15--15h17-13v-----|--13h15h17h18---18p17p15p13-----|
G|--14-------14-------------------|--------------------------------|
D|--------------------------------|--------------------------------|
A|--------------------------------|--------------------------------|
E|--------------------------------|--------------------------------|

e|---------------------------------------------------|
B|--13b15r-------------------------------------------|
G|---------15-14-12v---12b14-------------------------|
D|---------------------------15p12-15h17--15vvvv-----|
A|---------------------------------------------------|
E|---------------------------------------------------|

Outro fills:

e|-----------------13b15-13-12-13-12------------|
B|--------15-15----------------------13---------|
G|--12b14-------14----------------------12v-----|
D|----------------------------------------------|
A|----------------------------------------------|
E|----------------------------------------------|

e|--15b17-13----------|
B|----------15-13-----|
G|--------------------|
D|--------------------|
A|--------------------|
E|--------------------|

e|----------------------------------15vvv-----|
B|------13----13--11-10-----------------------|
G|--/12----12-----------12-10-9---------------|
D|------------------------------10------------|
A|--------------------------------------------|
E|--------------------------------------------|

e|--11-13-15-13-11-----------------|
B|-----------------14-12-10-10-----|
G|---------------------------------|
D|---------------------------------|
A|---------------------------------|
E|---------------------------------|

Lyrics:
So this is love, or so you tell me
As you're walking out the door
And months go by, and I know for certain
It's not the love I'm looking for

Sometimes, just for a moment
I reach out, and hope you're still there

Miles away, no you're never turning back
I just can't wait anymore
Miles away, never like the love we had
Just when I needed you most, you were miles away

It's hard to tell what you're going through
You kept your feelings locked inside of you
Open your heart and chances are
What you're feeling, I'm feeling too

If only, just for a moment
Hold on, to the dreams that we had

Miles away, no you're never turning back
I just can't wait anymore
Miles away, never like the love we had
Just when I needed you most, you were miles away

When times were tough, you were down and out
Who was there by your side
Now you're gone, I'm so tired of being alone
With only your promises

Bitchen solo

Loneliness just fades away
thoughts of you, just memories
No crying now, for what you're missing
Time won't forget what you meant to me

If only, just for a moment
Hold on, to the dreams that we had

Miles away, no you're never turning back
I just can't wait anymore
Miles away, never like the love we had
Just when I needed you most, you were miles away
Miles away, no you're never turning back
I just can't wait anymore
Miles away, never like the love we had
Just when I needed you most, you were miles away

| /  slide up
| \  slide down
| h  hammer-on
| p  pull-off
| ~  vibrato
| +  harmonic
| x  muted note
| b  bend
| r  return bend
===============================================================================
Suggest correction
Give kudos to tab author, rate the tab!
1 2 3 4 5
comments
print report bad tab
guest
You may want to rate the tab now too:
select rating
Wanna post a correction for this tab? Suggest correction