Oops, an error
Loading. Please wait.

Let Em In chords

by Wings
211 views 18 this week
3 commentsread comments
1 2 3 4 5
1 last vote to show rating
add to favorites
×
Save as Personal and add changes to this tab that will be seen only by you. Learn more ›
×
You can save this tab as Personal to edit and correct it or add notes. All changes will be seen only by you. Learn more »
launch autoscroll
font size
0
reset
transpose
0
reset
simplify chords
display chords
guitar tuner
edit
Autoscroll
slow
fast
+/-
esc
set tempo
stop
About this tab version
Complete and well-aligned chords / basic tabs for several parts / suggestions for special voicings. Was this info helpful? Yes No
Strumming
There is no strumming pattern for this song yet. and get +5 IQ
---------------------------------------------------------------------------
          Let ’Em In – Wings
---------------------------------------------------------------------------
Tabbed by: maguri
Tuning: Standard

Wings
Let ’Em In (1976)
(Paul and Linda McCartney)

From: "Wings at the Speed of Sound"

---------------------------------------------------------------------------

capo: 1st fret
play: A
key: Bb

For original chords transpose this tab +1 to Bb.

---------------------------------------------------------------------------

Capo 1st fret

[Big Ben]
  N.C
  1 + 2 + 3 + 4 +  1 + 2 + 3 + 4 +  
e|----------------|----------------|
B|6-------4-------|----4---6-------|
G|----6-----------|----------------|
D|------------6---|6-----------6---|
A|----------------|----------------|
E|----------------|----------------|


[Intro] [Verse]
  Amaj7            A6                E7/A             D/A
  1 + 2 + 3 + 4 +  1 + 2 + 3 + 4 +    1 + 2 + 3 + 4 +  1 + 2 + 3 + 4 +  
e|0---------------|0---------------| |0---------------|0---------------|
B|5---------------|5---------------| |3---------------|3---------------|
G|6---------------|6---------------| |1---------------|2---------------|
D|6---------------|4---------------| |2---------------|4---------------|
A|0---------------|0---------------| |0---------------|0---------------|
E|----------------|----------------| |----------------|----------------|


[Middle 8 – Link]
  E              Emaj7     E7       E6  E
  1 + 2 + 3 + 4 +  1 + 2 + 3 + 4 +  1 + 2 + 
e|0---------------|----------------|--------|
B|0---------------|----------------|2---0---|
G|1---------------|4-------4-------|1---1---|
D|2---------------|6-------6-------|2---2---|
A|2---------------|6-------5-------|--------|
E|0---------------|0---------------|--------|


[Coda] last four bars
 E7/A             D/A             Amaj7             A6 Amaj7
  1 + 2 + 3 + 4 +  1 + 2 + 3 + 4 +  1 + 2 + 3 + 4 +  1 + 
e|0---------------|0---------------|0---------------|--0
B|3---------------|3---------------|5---------------|--5
G|1---------------|2---------------|6---------------|6-6
D|2---------------|4---------------|6---------------|4-6
A|0---------------|0---------------|0---------------|0-0
E|----------------|----------------|----------------|---


---------------------------------------------------------------------------

CHORDS

          E-A-D-G-B-e
Amaj7     x-0-6-6-5-0
A6        x-0-4-6-5-0
E7/A      x-0-2-1-3-0
D/A       x-0-4-3-2-0

---------------------------------------------------------------------------

[Big Ben]
 N.C
(freely)

[Intro]
| Amaj7 | A6 | Amaj7 | A6 |
| E7/A | D/A | Amaj7 | A6 |


[Verse]
Amaj7
 Someone's knockin' at the door
A6
 Somebody's ringin' the bell
Amaj7
 Someone's knockin' at the door
A6
 Somebody's ringin' the bell
E7/A
 Do me a favor
D/A                      | Amaj7 | A6 |
Open the door and let 'em in


[Verse]
Amaj7
 Someone's knockin' at the door
A6
 Somebody's ringin' the bell
Amaj7
 Someone's knockin' at the door
A6
 Somebody's ringin' the bell
E7/A
 Do me a favor
D/A                       Amaj7    A6
Open the door and let 'em in, yeah-eah-eah, let ‘em in


[Interlude]
| Amaj7 | A6 | Amaj7 | A6 |
| E7/A | D/A | Amaj7 | A6 |


[Middle 8]
Em            A
 Sister Suzie, Brother John
Em             A
 Martin Luther, Phil and Don
Em               A
 Brother Michael, Auntie Gin
Em                 E               Emaj7 E7     E6  E
 Open the door and let 'em i – i – i -   in, oh ye -ah
                (break)         (= Middle 8 – Link)


[Solo] trombone
| Amaj7 | A6 | Amaj7 | A6 |
| E7/A | D/A | Amaj7 | A6 |


[Middle 8]
Em            A
 Sister Suzie, Brother John
Em             A
 Martin Luther, Phil and Don
Em           A7
 Uncle Ernie, Auntie Gin
Em7                E               Emaj7 E7     E6  E
 Open the door and let 'em i – i – i -   in, oh ye -ah
                (break)         (= Middle 8 – Link)


[Verse]
Amaj7
 Someone's knockin' at the door
A6
 Somebody's ringin' the bell
Amaj7
 Someone's knockin' at the door
A6
 Somebody's ringin' the bell
E7/A
 Do me a favor
D/A                       Amaj7  A6
Open the door and let 'em in, oh yeah, yeah, let ‘em in


[Interlude] scat vocals/flutes
| Amaj7 | A6 | Amaj7 | A6 |
| E7/A | D/A | Amaj7 | A6 |


[Middle 8]
Em            A
 Sister Suzie, Brother John
Em             A
 Martin Luther, Phil and Don
Em           A7
 Uncle Ernie, Uncle Lin
Em7                E               Emaj7 E7     E6  E
 Open the door and let 'em i – i – i -   in, oh ye -ah
                (break)         (= Middle 8 – Link)


[Verse]
Amaj7
 Someone's knockin' at the door
A6
 Somebody's ringin' the bell
Amaj7
 Someone's knockin' at the door
A6
 Somebody's ringin' the bell
E7/A
 Do me a favor
D/A                       Amaj7     A6
Open the door and let 'em in, yeah, yeah, yeah, yeah


[Interlude]
| Amaj7 | A6 | Amaj7 | A6 |


[Coda] flutes
| E7/A | D/A | Amaj7 | A6 |
| E7/A | D/A | Amaj7 | A6 |
 (decrescendo/fade out)
|  E7/A  |  D/A  |  Amaj7  | A6 Amaj7
 (decrescendo/fade out)      (loud)

Suggest correction
Creating personal tab
Creating personal tab
You can edit any tab online and save it as your Personal.

You can edit, replace or remove any tab part or add personal notes – all changes will be seen only by you.

Personal tabs can be accessed anytime from any device, even offline.
Learn more »
Give kudos to tab author, rate the tab!
1 2 3 4 5
comments
print report bad tab
3 comments total.
0 reply
Mats Fagergren 2,071 Mar 27, 2017 12:39 PM

Perfect as always,!

+1 reply
SveaAgnes 25 Mar 29, 2017 06:06 PM

Love this song..So sweet

guest
You may want to rate the tab now too:
select rating
Wanna post a correction for this tab? Suggest correction