Oops, an error
Loading. Please wait.

Mamunia tab

by Wings
13,081 views 24 this week
1 commentread comment
1 2 3 4 5
x 18
add to favorites
×
Save as Personal and add changes to this tab that will be seen only by you. Learn more ›
×
You can save this tab as Personal to edit and correct it or add notes. All changes will be seen only by you. Learn more »
launch autoscroll
font size
0
reset
how to read this tab
guitar tuner
edit
Autoscroll
slow
fast
+/-
esc
set tempo
stop
Author
Difficulty
maguri [tm] 31,333
intermediate
---------------------------------------------------------------------------
                Mamunia - Paul McCartney and Wings
---------------------------------------------------------------------------
Tabbed by: maguri
Tuning: Standard

Paul McCartney and Wings
Mamunia (1973)
(McCartney)
From: Band on the Run



INTRO
  A                Amaj7            A6               A
  1 + 2 + 3 + 4 +  1 + 2 + 3 + 4 +  1 + 2 + 3 + 4 +  1 + 2 + 3 + 4 +
e|5---------------|4---------------|2---------------|----------------|
B|----------2-----|----------2-----|----------2-----|5---------------|
G|------2---------|------2---------|------2---------|----------2-----|
D|----2-------2---|----2-------2---|----2-------2---|----2-------2---|
A|0-------0-------|0-------0-------|0-------0-------|0-------0-------|
E|----------------|----------------|----------------|----------------|
  D/A              A                E                A
  1 + 2 + 3 + 4 +  1 + 2 + 3 + 4 +  1 + 2 + 3 + 4 +  1 + 2 + 3 + 4 +
e|----------------|----------------|----------------|----------------|
B|3---------3-----|2---------2-----|0---------0-----|----------------|
G|------2---------|------2---------|------1---------|2---------2-----|
D|----0-------0---|----2-------2---|----2-------2---|----2-------2---|
A|0-------0-------|0-------0-------|----------------|0-------0-------|
E|----------------|----------------|0-------0-------|----------------|

  A                Amaj7            A6               A
  1 + 2 + 3 + 4 +  1 + 2 + 3 + 4 +  1 + 2 + 3 + 4 +  1 + 2 + 3 + 4 +
e|5---------------|4---------------|2---------------|----------2-----|
B|----------2-----|----------2-----|----------2-----|5-----------5---|
G|------2---------|------2---------|------2---------|------2---------|
D|----2-------2---|----2-------2---|----2-------2---|----2-------2---|
A|0-------0-------|0-------0-------|0-------0-------|0-------0-------|
E|----------------|----------------|----------------|----------------|
  Mamunia          Mamunia          Mamunia          Oh oh oh  
  D/A              A                E                A
  1 + 2 + 3 + 4 +  1 + 2 + 3 + 4 +  1 + 2 + 3 + 4 +  1 + 2 + 3 + 4 +
e|----------------|----------------|----------------|----------------|
B|3---------3-----|2---------2-----|0---------0-----|----------------|
G|------2---------|------2---------|------1---------|2---------2-----|
D|----0-------0---|----2-------2---|----2-------2---|----2-------2---|
A|0-------0-------|0-------0-------|----------------|0-------0-------|
E|----------------|----------------|0-------0-------|----------------|
  Mamunia          Mamunia          Oh oh oh oh oh  
  
  E                Esus4            E                E6
  1 + 2 + 3 + 4 +  1 + 2 + 3 + 4 +  1 + 2 + 3 + 4 +  1 + 2 + 3 + 4 +
e|----------------|----------------|----------------|----------------|
B|----------------|----------------|0---------0-----|2---------2-----|
G|1---------1-----|2---------2-----|------1---------|------1---------|
D|----2-------2---|----2-------2---|----2-------2---|----2-------2---|
A|----------------|----------------|----------------|----------------|
E|0-------0-------|0-------0-------|0-------0-------|0-------0-------|
  [Moog]

  D/A              Dadd9/A          D/A              E
  1 + 2 + 3 + 4 +  1 + 2 + 3 + 4 +  1 + 2 + 3 + 4 +  1 + 2 + 3 + 4 +
e|----------------|0---------0-----|2---------2-----|4---------4-----|
B|3---------3-----|----------------|----------------|----------------|
G|------2---------|------2---------|------2---------|------4---------|
D|----0-------0---|----0-------0---|----0-------0---|----2-------2---|
A|0-------0-------|0-------0-------|0-------0-------|----------------|
E|----------------|----------------|----------------|0-------0-------|
  [Moog]

  A                Amaj7            A6               A
  1 + 2 + 3 + 4 +  1 + 2 + 3 + 4 +  1 + 2 + 3 + 4 +  1 + 2 + 3 + 4 +
e|5---------------|4---------------|2---------------|----------2-----|
B|----------2-----|----------2-----|----------2-----|5-----------5---|
G|------2---------|------2---------|------2---------|------2---------|
D|----2-------2---|----2-------2---|----2-------2---|----2-------2---|
A|0-------0-------|0-------0-------|0-------0-------|0-------0-------|
E|----------------|----------------|----------------|----------------|
  Mamunia          Mamunia          Mamunia          Oh oh oh  
  D/A              A                E                A
e|----------------|----------------|----------------|----------------|
B|3---------3-----|2---------2-----|0---------0-----|----------------|
G|------2---------|------2---------|------1---------|2---------2-----|
D|----0-------0---|----2-------2---|----2-------2---|----2-------2---|
A|0-------0-------|0-------0-------|----------------|0-------0-------|
E|----------------|----------------|0-------0-------|----------------|
  Mamunia          Mamunia          Oh oh oh oh oh  

  A
  1 + 2 + 3 + 4 +  1 + 2 + 3 + 4 + 
e|----------------|----------------|
B|------2---------|------2---------|
G|/2----------2---|(2)---------2---|
D|/2--------------|----------------|
A|0---------------|0---------------|
E|----------------|----------------|

---------------------------------------------------------------------------

CHORDS

            e-B-G-D-A-E
A           x-0-2-2-2-5
Amaj7       x-0-2-2-2-4
A6          x-0-2-2-2-2
D/F#        2-x-0-2-3-2
Dm(add9)/F  1-x-3-2-3-0
C/B         x-2-x-0-1-0

---------------------------------------------------------------------------


INTRO
| A | Amaj7 | A6 | A | D/A | A | E | A |


CHORUS
A       Amaj7   A6      A
Mamunia mamunia mamunia oh oh oh
D/A     A       E        A
Mamunia mamunia oh oh oh oh


INTERLUDE
| E | Esus4 | E | E6 | D/A | Dadd9/A | D | E | 
 [Moog]


CHORUS
A       Amaj7   A6      A
Mamunia mamunia mamunia oh oh oh
D/A     A       E        A
Mamunia mamunia oh oh oh oh


VERSE + link
C              C/B     Am       Am/G              
The rain comes falling from the sky,
   D/F#     Dm(add9)/F  C         C/G
To fill the stream that fills the sea
C                C /B   
And that's where life 
  Am      Am/G    D/F#    F          
began for you and me      1 + 2 + 3 + 4 + 
                        A|----0-----------|
                        E|1-3-------1-3---|



VERSE
       C         C/B     Am      Am/G              
So the next time you see rain it ain't bad,
D/F#      Dm/F    C         C/G
Don't complain it rains for you,
    C          C/B    Am   Am/G              
The next time you see L.A. rainclouds,
D/F#              F                 C   C/B
Don't complain it rains for you and me


CHORUS
A       Amaj7   A6      A
Mamunia mamunia mamunia oh oh oh
D/A     A       E        A
Mamunia mamunia oh oh oh oh
A       Amaj7   A6      A
Mamunia mamunia mamunia oh oh oh
D/A     A       E        A
Mamunia mamunia oh oh oh oh


VERSE + link
C             C/B    Am          Am/G              
It might have been a bright blue day but
D/F#       Dm/F   C         C/G
Rainclouds had to come this way
        C        C/B  Am 
They're watering everything 
     Am/G     D/F#      F          
that they can see.      1 + 2 + 3 + 4 + 
                      A|----0-----------|
                      E|1-3-------1-3---|


VERSE + link
  C       C/B     Am     Am/G              
A seed is waiting in the earth
    D/F#    Dm/F     C        C/G
For rain to come and give him birth,
     C      C/B    Am       
It's all he really needs 
   Am/G    D/F#     F
to set him free     1 + 2 + 3 + 4 + 
                  A|----0-----------|
                  E|1-3-------1-3---|


VERSE (part) + link 
       C         C/B     Am      Am/G              
So the next time you see rain it ain't bad,
D/F#              F           
Don't complain it rains for you,
                  1 + 2 + 3 + 4 + 
                A|----0-----------|
                E|1-3-------1-3---|


MIDDLE 8
   G                 C
So lay down your umbrellas
E                      Am
Strip off your plastic macs.
D             
You've never felt the rain my friend,
            Dm7                       G
Till you've felt it running down your back


VERSE
       C         C/B     Am      Am/G              
So the next time you see rain it ain't bad,
D/F#      Dm/F    C         C/G
Don't complain it rains for you,
    C          C/B    Am   Am/G              
The next time you see L.A. rainclouds,
D/F#              F                 C   C/B
Don't complain it rains for you and me


CHORUS
A       Amaj7   A6      A
Mamunia mamunia mamunia oh oh oh
D/A     A       E        A
Mamunia mamunia oh oh oh oh
A       Amaj7   A6      A
Mamunia mamunia mamunia oh oh oh
D/A     A       E        A
Mamunia mamunia oh oh oh oh


INTERLUDE
| E | Esus4 | E | E6 | D/A | Dadd9/A | D | E | 
 [Moog]


CHORUS
A       Amaj7   A6      A
Mamunia mamunia mamunia oh oh oh
D/A     A       E        A
Mamunia mamunia oh oh oh oh

            
            
Suggest correction
Creating personal tab
Creating personal tab
You can edit any tab online and save it as your Personal.

You can edit, replace or remove any tab part or add personal notes – all changes will be seen only by you.

Personal tabs can be accessed anytime from any device, even offline.
Learn more »
comments
print report bad tab
1 comment total.
0 reply
HecklerK 87 Mar 12, 2015 05:44 PM, edited at 09:45 pm

I don't know what Dm add9/F is lol, but great tab!
edit: I'm dumb, you showed us

guest
You may want to rate the tab now too:
select rating
Wanna post a correction for this tab? Suggest correction