Oops, an error
Loading. Please wait.

Misteri Mimpi Syakilla Tab

5,862 views 30 this week
no commentswrite comment
1 2 3 4 5
please rate
add to favorites
launch autoscroll
font size
0
reset
how to read this tab
guitar tuner
Autoscroll
slow
fast
+/-
esc
set tempo
stop
Help us to improve Ultimate-Guitar.com Take our survey!
×
Author
Difficulty
intermediate
WINGS - Misteri Mimpi Syakilla (solo)


Key:

^  - bend
^^ - full bend
h  - hammer on
p  - pull off
r  - release bend
/  - slide down
\  - slide up
~  - vibrato
() - finger tap



G   Bb        A
Aku pun tak tahu...oh...oh...


     A
e|--------------------------------|---|
B|--/11-10h11p10-8-6--5-----------|---|
G|--------------------------------|---|
D|--------------------------------|---|
A|--------------------------------|---|
E|--------------------------------|---|


    Dm                                                           Bb
e|------------------------------------------------------------------------|
B|--10h11p10h11p10h11p10---8h10p8h10p8h10p8---6h8p6h8p6h8p6---5--6p5-6----|
G|------------------------------------------------------------------------|
D|------------------------------------------------------------------------|
A|------------------------------------------------------------------------|
E|------------------------------------------------------------------------|


  C                   A                     Dm
e|---------------------------------13h15p13-12-13-------|
B|----5---6-5h6p5-----6p5-------------------------15----|
G|----------------7-5-----------------------------------|
D|--7---7-----------------7-----------------------------|
A|------------------------------------------------------|
E|------------------------------------------------------|


             Bb                C
e|---------------------------------------10-----10---------|
B|--13h15p13-11----13-13--------------10----13^----11-13---|
G|-------------------------------12^^----------------------|
D|---------------------------------------------------------|
A|---------------------------------------------------------|
E|---------------------------------------------------------|


    A
e|-------------------------------------------------------------------|
B|--11h13p11h13p11h13p11---10h11p10h11p10h11p10---8h10p8h10p8h10p8---|
G|-------------------------------------------------------------------|
D|-------------------------------------------------------------------|
A|-------------------------------------------------------------------|
E|-------------------------------------------------------------------|


                       Dm                         Bb
e|--------------------------------------------------------------------|
B|--6h8p6h8p6h8p6---5--6p5------------------15-17-17^--15h17p15-------|
G|-------------------------7-5-7--------/14---------------------15----|
D|--------------------------------------------------------------------|
A|--------------------------------------------------------------------|
E|--------------------------------------------------------------------|



             C                            A
e|-----------20-20-----18-17-15-17-----------------17----15h17p15----------|
B|--20^^r-18---------------------------15-17-18-17----------------18-17----|
G|-------------------------------------------------------------------------|
D|-------------------------------------------------------------------------|
A|-------------------------------------------------------------------------|
E|-------------------------------------------------------------------------|


     Dm                           Bb
e|------------------------------------------------|
B|--18p17---------------------5---6p5-------------|
G|--------19-17-19--------------------7-5-7-------|
D|-------------------------/7---7-----------------|
A|------------------------------------------------|
E|------------------------------------------------|


                               C                      A
e|-----------------------17-18-20---------18p17----17----------|
B|--------------17-18-20------------------------20----20^^r----|
G|--------17-19------------------------------------------------|
D|--17-19------------------------------------------------------|
A|-------------------------------------------------------------|
E|-------------------------------------------------------------|



e|---------------------------------17-15h17p15-------------------------|
B|--18h20p18-17-18-17^r-17^r----15-------------18-17-15-17-17^r-17^r---|
G|---------------------------------------------------------------------|
D|---------------------------------------------------------------------|
A|---------------------------------------------------------------------|
E|---------------------------------------------------------------------|


    C
e|----------------|
B|--13~-----------|
G|----------------|
D|----------------|
A|----------------|
E|----------------|


C                     Bb
Bila pun engkau menjelma...



Guitar tabs by rizalwahap
Suggest correction
Give kudos to tab author, rate the tab!
1 2 3 4 5
comments
print report bad tab
guest
You may want to rate the tab now too:
select rating
Please do not post tabs as comments. Select "correction" instead!