Oops, an error
Loading. Please wait.

With A Little Luck chords

version 2
version 2

Whole song

by Wings
445 views 6 this week
no commentswrite comment
1 2 3 4 5
x 5
add to favorites
×
Save as Personal and add changes to this tab that will be seen only by you. Learn more ›
×
You can save this tab as Personal to edit and correct it or add notes. All changes will be seen only by you. Learn more »
launch autoscroll
font size
0
reset
transpose
0
reset
simplify chords
display chords
guitar tuner
edit
Autoscroll
slow
fast
+/-
esc
set tempo
stop
Author
Difficulty
maguri [tm] 31,290
intermediate
Strumming
There is no strumming pattern for this song yet. and get +5 IQ
---------------------------------------------------------------------------
                With a Little Luck – Wings
---------------------------------------------------------------------------
Tabbed by: maguri
Tuning: Standard

Wings 
With a Little Luck (1978)
(McCartney)

This is the single edit (3:14).
The album version (5:44) can be found on "London Town".

---------------------------------------------------------------------------

INTRO
  A/B                               E 
  1 + 2 + 3 + 4 +  1 + 2 + 3 + 4 +  1 + 2 + 3 + 4 +  1 + 2 + 3 + 4 +
e|0-----0---------|--------0-------|0---------------|----------------|
B|2-----2---------|--------2-------|0---------------|----------------|
G|2-----2---------|--------2-------|1---------------|----------------|
D|2-----2---------|--------2-------|2---------------|----------------|
A|2-----2---------|--------2-------|2---------------|----------------|
E|----------------|----------------|0---------------|----------------|
  A/B                     A/D   C#m7      B7sus4 [E]
  1 + 2 + 3 + 4 +  1 + 2 + 3 + 4 +  1 + 2 + 3 + 4 +  
e|0-----0---------|----------------|----------------|
B|2-----2---------|--------2-------|----------------|
G|2-----2---------|--------2-----4-|--------2----[1]|
D|2-----2---------|--------0-----6-|--------2----[2]|
A|2-----2---------|--------------4-|--------2----[2]|
E|----------------|----------------|-------------[1]|


LINK (in middle 8)
Dmaj7  E/D    D     A/D  Bm/D A/D
  1 + 2 + 3 + 4 +  1 + 2 + 3 + 4 +  
e|5-----4-----2---|--0-------------|
B|7-----5-----3---|--2-----3---2---|
G|6-----4-----2---|--2-----4---2---|
D|0-----0-----0---|--0-----0---0---|
A|----------------|----------------|
E|----------------|----------------|

---------------------------------------------------------------------------
CHORDS

          E-A-D-G-B-e
A/B       x-2-2-2-2-0
B7sus4    x-2-4-2-2-2
E/G#      4-x-2-1-0-0
F#m/C#    x-4-x-2-2-2
Dmaj7     x-x-0-6-7-5
E/D       x-x-0-4-5-4
A/D       x-x-0-2-2-0
Bm/D      x-x-0-4-3-x

---------------------------------------------------------------------------

INTRO
| A/B | % | E | % | 
| A/B | A/B A/D | C#m7 B7sus4 |


VERSE
E              E/G#                 A
 With a little luck, we can help it out
                 A/B                   E
We can make this whole damn thing work out
E              E/G#                A
 With a little love, we can lay it down
                   A/B            C#m7
Can't you feel the town exploding?


MIDDLE 8
F#m           C#7                F#m         C#7
  There is no end to what we can do together
F#m           C#7              F#m/C#      C#7
  There is no end, there is no end
                                          LINK (see above)
F#m          C#7               | Dmaj7   E/D     D | A/D  Bm/D  A/D |
  The willow turns his back on inclement weather  
      | B7sus2  |  %  |
And if he can do it
(break)      (build-up)
B7sus2         A/B
  We can do it, just me and you


VERSE
E             E/G#                  A
 And a little luck, we can clear it up
                A/B           
We can bring it in for a landing,
E              E/G#                 A
 With a little luck, we can turn it on
                A/B              C#m7
There can be no misunderstanding


MIDDLE 8
F#m           C#7                F#m         C#7
  There is no end to what we can do together
F#m           C#7              F#m/C#      C#7
  There is no end, there is no end
                                          LINK (see above)
F#m          C#7               | Dmaj7   E/D     D | A/D  Bm/D  A/D |
  The willow turns his back on inclement weather  
B7sus2         A/B
  We can do it, just me and you


VERSE
E              E/G#                  A
 With a little push, we could set it off
               A/B            
We can send it rocketing skywards
E              E/G#           A
 With a little love, we could shake it up
                   A/B              C#m7
Don't you feel the comet exploding?


INTERLUDE
        E
(With a little luck
       E/G#
With a little luck
       A                             A/B
With a little luck, a little luck, a little luck)


VERSE (variation and coda)
E              E/G#               A
 With a little luck we can lay it down
                   A/B
Can't you feel the town exploding
E              E/G#               A
 With a little push we can set it off
               A/B
We can send it rocketing skywards
E              E/G#        A
 With a little luck we can shake it up
                    A/D     C#m7
Don't you feel that comet exploding?

B7sus4 E     A/D      C#m7
 Woah, woah - ooh ooh ooh ooh

| A/B | % |  E

Suggest correction
Creating personal tab
Creating personal tab
You can edit any tab online and save it as your Personal.

You can edit, replace or remove any tab part or add personal notes – all changes will be seen only by you.

Personal tabs can be accessed anytime from any device, even offline.
Learn more »
comments
print report bad tab
guest
You may want to rate the tab now too:
select rating
Wanna post a correction for this tab? Suggest correction