Oops, an error
Loading. Please wait.

The Night Is An Ocean chords

76 views 18 this week
no commentswrite comment
1 2 3 4 5
3 more votes to show rating
add to favorites
×
Save as Personal and add changes to this tab that will be seen only by you. Learn more ›
×
You can save this tab as Personal to edit and correct it or add notes. All changes will be seen only by you. Learn more »
launch autoscroll
font size
0
reset
transpose
0
reset
simplify chords
display chords
guitar tuner
edit
Autoscroll
slow
fast
+/-
esc
set tempo
stop
Strumming
There is no strumming pattern for this song yet. and get +5 IQ
This tab may be inaccurate though sounds very similar to the original audio.

[Finger Picking Pattern]
   Fmaj7                            G
e|---0---0---0---0---0---0---0-----------------------------------------------|
B|---1---1---1---1---1---1---1--------0---0---0---0---0---0---0--------------|
G|------------------------------------0---0---0---0---0---0---0--------------|
D|-3---3---3---3---3---3---3---3p0---------------------------------0---------|
A|--------------------------------3-2---2---2---2---2---2---2---2h3----------|
E|---------------------------------------------------------------------------|

   Am                              C
e|---------------------------------------------------------------------------|
B|---1---1---1---3---1---3---1---1---1---1---1---3---1---3---1---1-----------|
G|---2---2---2---2---2---2---2---2---2---2---2---2---2---2---2---2-----------|
D|---------------------------------------------------------------------------|
A|-0---0---0---0-------0-------0---3---3---3---3-------3-------3-------------|
E|---------------------------------------------------------------------------|

[Intro]
Fmaj7 G Am C
Fmaj7 G Am C

[Verse]
Fmaj7
    Oh little darling
              G
Please let it be
                               Am
I can be quiet, if you want to sleep

I will say nothing, nothing
C                                  Fmaj7
    I will say nothing, nothing at all

Oh little darling
              G
Please let it be
                                Am
I won't speak of the things you dream

I will say nothing
C
    I will say nothing, nothing at all

[Break]
Fmaj7 G Am C

[Verse]
Fmaj7                              G
    Summer arrived while you were asleep
                              Am
The days are sweet and sun-fading

I want for nothing, nothing
C                                  Fmaj7
    I want for nothing, nothing at all

                                   G
The night is a blanket seamed with teeth
                             Am
I don't know why it seems so sweet

It might be nothing
C
    It might be nothing, nothing

   Fmaj7                            G
But     autumn arrived while i was asleep
                                 Am
The leaves are collecting in our street

I can do nothing, nothing
C
    I can do nothing, nothing

   Fmaj7                              G
And     just when i find the words to speak
                                Am
The night turns cold and i turn weak

So i say nothing
C
    So i say nothing

Fmaj7                                G
    And just when you start to fall asleep
                            Am
You wake me up and touch my cheek

And i need nothing
C
    And i need nothing
Fmaj7
    And i need nothing
G                                   Am           C
    And i need nothing, nothing but that

[Break]
Fmaj7 G Am C

[Verse]
Fmaj7                                       G
    The night is an ocean the stars are its fleet
                                   Am
They sail to the sun and reel in defeat

They fade to nothing nothing
C
    They fade to nothing, nothing at all

Fmaj7                                G
    Oh, little darling, stubborn and sweet
                                  Am
Can't figure out what all of this means

I would say nothing, nothing
C                                   Fmaj7
    I would say nothing, nothing at all

            
            
Suggest correction
Creating personal tab
Creating personal tab
You can edit any tab online and save it as your Personal.

You can edit, replace or remove any tab part or add personal notes – all changes will be seen only by you.

Personal tabs can be accessed anytime from any device, even offline.
Learn more »
Give kudos to tab author, rate the tab!
1 2 3 4 5
comments
print report bad tab
guest
You may want to rate the tab now too:
select rating
Wanna post a correction for this tab? Suggest correction