Oops, an error
Loading. Please wait.

5523 Tab

289 views 1 this week
no commentswrite comment
1 2 3 4 5
1 last vote to show rating
add to favorites
launch autoscroll
font size
0
reset
how to read this tab
guitar tuner
Autoscroll
slow
fast
+/-
esc
set tempo
stop
Help us to improve Ultimate-Guitar.com Take our survey!
×
Author
Difficulty
Tuning
advanced
C G C F A D
my first tab, i believe i got most parts right.

intro
D-----------|     ||------------|
A-----------|     ||------------|
F-3-----5-2-|     ||------------|
C-3-000-5-2-|  or ||-8-000-10-7-|
G-1-000-3-0-|     ||-8-000-10-7-|
C---000-----|     ||-8-000-10-7-|
    ...

verse I
||-----------------------------------------------------------------------|
||-----------------------------------------------------------------------|
||-----------------------------------------------------------------------|
||-----------------------------------------------------------------------|
||-----5-8-5-------5-5h7h8-8p7p5-------5-8-5-8888-10101010-8888-12121212-| 
||-000--0-0--0-000--0-----0------0-000--0-0------------------------------|
   ...  . .  . ...  .     .      . ...  . .  ....          ....  
||--------------------------------------------------------------|
||--------------------------------------------------------------|
||--------------------------------------------------------------|
||--------------------------------------------------------------|
||-----5-8-5-------5-5h7h8-8p7p5-------5-8-5-12(x8)-10101010-8~-|
||-000--0-0--0-000--0-----0------0-000--0-0---------------------|
   ...  . .  . ...  .     .      . ...  . . 

pre chorus
||------------------------------------------------------------|
||------------------------------------------------------------|
||------------------------------------------------------------|
||------------------------------------------------------------| x2
||-8--8--8--8--7--7--7--7--10--10--10--10--8--8--8--8--7h8h10-|
||--00-00-00-00-00-00-00-00--00--00--00--00-00-00-00-00-------|
    .. .. .. .. .. .. .. ..  ..  ..  ..  .. .. .. .. ..
||--------|
||--------|
||--------|
||-8~-10~-|
||-8~-10~-|
||-8~-10~-| 

second ending
||-------------------------------------|
||-------------------------------------|
||-------------------------------------|
||----------------8----------------7-3-|
||-7h8h10-8h10h12-8-12p10p8-10p8p7-7-3-|
||----------------8----------------7-3-|

chorus-trem picking (my favorite part,right notes,estimated amounts though)
||-----------------------------------------------------|
||-----------------------------------------------------|
||-----------------------------------------------------|
||-----------------------------------------------------|
||-5(x16)-7(x8)-8(x8)-10(x8)-8(x16)-3(x8)-10(x8)-8(x8)-|
||-----------------------------------------------------|
                                                                   x2
||----------------------------------------------------------|
||----------------------------------------------------------|
||----------------------------------------------------------|
||----------------------------------------------------------|
||-5(x16)-7(x8)-8(x8)-10(x8)-1(x8)-8(x8)-0(x8)-10(x8)-8(x8)-|
||----------------------------------------------------------|

repeat verse I
repeat prechorus with second ending

verse II
||-----------------------------------------------------------------|
||-----------------------------------------------------------------|
||-----------------------------------------------------------------|
||-00-00---0-00------------00-00---0-00----------------------------|
||-00-00-7-0-00---7--8--10-00-00-7-0-00----7h8h10h12-8h10h12h14-15-|
||-00-00---0-00-00-00-00---00-00---0-00-00-------------------------|
   .. ..   . .. .. .. ..   .. ..   . .. ..                           x2
||-----------------------------------------------------------------|
||-----------------------------------------------------------------|
||-----------------------------------------------------------------|
||-00-00---0-00------------00-00---0-00----------------------------|
||-00-00-7-0-00---8--10--7-00-00-7-0-00----7h8h10h12-8h10h12h14-15-|
||-00-00---0-00-00-00--00--00-00---0-00-00-------------------------|
   .. ..   . .. .. ..  ..  .. ..   . .. ..
||---------------------------------|
||---------------------------------|
||-------------------------12~-10~-|
||---------------------------------|
||-7h8h10h12-8h10h12h14-15---------|
||---------------------------------|

verse III                                           
||-------------------------------------------|----------------|
||-------------------------------------------|----------------|
||-------------------------------------------|----------------|
||-00-00-00000------00-00-00000--------------|x2--------------|  x2
||-00-00-00000------00-00-00000-7-8-5-8-10-7-|---7-8-5-8-10-7-|
||-00-00-00000------00-00-00000--------------|----------------|
   .. .. .....      .. .. .....
||--------|
||--------|
||--------|
||-8~-10~-|
||-8~-10~-|
||-8~-10~-|

repeat chorus x2
end

lyrics

One day at a time
You count your blessings
Then continue to court mine
So cautious you are yet you throw yourself into the gears with ease
I've fallen into an ocean of deceit
And you're holding onto the last life vest
With your back to the tides of terror tonight
One arm at a time 
Struggling to set your self free
When chin deep in your lies
Traveling down denial
You've lost your paddle in the commotion of emptiness
You sit distraught and numb
Eyes rolling back into an infinite darkness
I will carry you and your gloom
Home sweet home
Hold my hand and let yourself go

my favorite song on the album, hope you enjoy!
Suggest correction
Give kudos to tab author, rate the tab!
1 2 3 4 5
comments
print report bad tab
guest
You may want to rate the tab now too:
select rating
Wanna post a correction for this tab? Suggest correction