Oops, an error
Loading. Please wait.

Calibrate The Virus Bass Tab

version 1
version 1

Whole song

Interactive

149 views 3 this week
no commentswrite comment
1 2 3 4 5
please rate
add to favorites
launch autoscroll
font size
0
reset
guitar tuner
Tab Pro tools
  • play this tab
  • loop segment
  • change instrument
  • show fretboard
  • metronome
Autoscroll
slow
fast
+/-
esc
set tempo
stop
Contributor
Difficulty
novice
pretty much it. as for order you'll have to figure it out.

Drop-C
Intro:
F------------------------------------------------|
C------------------------------------------------|
G--4----------4-4-4-4/5-4----------4-5-7-5-4/5-4-|
C----0000-0000------------0000-0000--------------|

Verse:1/2
F--------------------------------------------|
C--------------------------------------------|
G--------------------------------------------|
C-0-000-0---0-000-0---0-000-0---0-000----5/8-|
endings 1,3
F----------------------------------------------------------------|
C----------------------------------------------------------------|
G----------5-7-8---------8-7-3h6---------------------------------|
C-0-000000------0-000000---------0-000000--8-88888/10-1010101010-|
ending 2,4
F---------------------------------------------------------------|
C---------------------------------------------------------------|
G----------5-7-8---------8-7-3h6--------------------------------|
C-0-000000------0-000000---------0-000000--8-88888\5-55555-0----|

Verse:2/2
endings 1,3
F----------------------------------------------------------------------|
C----------------------------------------------------------------------|
G----------8-10-12----------12-10-7h10---------------------------------|
C-0-000000---------0-000000------------0-000000--8-88888/10-1010101010-|
ending 2,4
F-------------------------------------------------------------------|
C-------------------------------------------------------------------|
G----------8-10-12----------12-10-7h10------------------------------|
C-0-000000---------0-000000------------0-000000--8-88888\5-55555-0--|

Chorus:(picking part)
F-------------------------------------------|
C-------------------------------------------|
G-------------------------------------------|
C-000000000000----101010101010/888888888888-|

Bridge:
F------------------------------------------|
C------------------------------------------|
G------------------------------------------|
C-1212121212-101010101010-88888-777777-----|

Breakdown:
F--------------------------|
C--------------------------|
G--------------------------|
C-00-000000-000000-000000--|

F------------------------------------------|
C------------------------------------------|
G------------------------------------------|
C-00-000-00-000-00-0000-000-00-0-00-000----|
comments
We did not receive enough feedback on this tab! Please rate:
print report bad tab
1 2 3 4 5
I want to post or [tab]
guest
You may want to rate the tab now too:
select rating
Please do not post tabs as comments. Select "correction" instead!