Oops, an error
Loading. Please wait.

Calibrate The Virus Tab

version 1
version 1

Whole song

Interactive

1,142 views 1 this week
1 commentread comment
1 2 3 4 5
excellent!
x 6
add to favorites
launch autoscroll
font size
0
reset
how to read this tab
guitar tuner
Tab Pro tools
  • play this tab
  • loop segment
  • change instrument
  • show fretboard
  • metronome
×
Best way to learn
"Calibrate The Virus"
Autoscroll
slow
fast
+/-
esc
set tempo
stop
Contributor
Band: Winter Solstice
Song: Calibrate The Virus
CD: The Fall of Rome
Guitarists: JT Turner and Caleb Goins

Tabbed by: Kyle C.----E-mail: hardrockingguitarist3

Tuning: (low to high) C,G,C,F,A,D

Intro - Guitar 1
D-----------------------------------------------------------------------|
A-----------------------------------------------------------------------|
F-----------------------------------------------------------------------|
C-----------------------------------------------------------------------|(2x)
G-4-0000-000000-4--4--4---5p4h5-4-0000-000000-4--5--7--4-5p4h5----------|
C---0000-000000--00-00--00--------0000-000000--00-00-00-----------------|
    .... ......  .. ..  ..        .... ......  .. .. ..

Intro - Guitar 2
D-----------------------------------------------------------------------|
A-----------------------------------------------------------------------|
F-----------------------------------------------------------------------|
C--------------------------------------------------------5p3h5----------|(2x)
G-4-0000-000000-4--4--4---5p4h5-4-0000-000000-4--5--7--4----------------|
C---0000-000000--00-00--00--------0000-000000--00-00-00-----------------|
    .... ......  .. ..  ..        .... ......  .. .. ..

Verse- Guitar 1
D---------------------------------------------------------------------------|
A---------------------------------------------------------------------------|
F---------------------------------------------------------------------------|
C-0---------------0-----------------0---------------------------------------|
G-0-------5--7--8-0-------8--7--3h7-0-------5--7--8-101010-88-77-888-777-55-|
C-0-000000-00-00--0-000000-00-00----0-000000-00-00--------------------------|
    ...... .. ..    ...... .. ..      ...... .. ..

Verse- Guitar 2
D---------------------------------------------------------------------------|
A---------------------------------------------------------------------------|
F---------------------------------------------------------------------------|
C-0-------0--0--0-0-------0--0--0---0-------0--0--0-8~-----------5~---------|
G-0-------0--0--0-0-------0--0--0---0-------0--0--0-8~-----------5~---------|
C-0-------0--0--0-0-------0--0--0---0-------0--0--0-8~-----------5~---------|

Verse(cont.)- Both Guitars
D----------------------------------------------------------------------------|
A----------------------------------------------------------------------------|
F----------------------------------------------------------------------------|
C-0---------------0-----------------0----------------------------------------|
G-0-------5--7--8-0-------8--7--3h7-0-------5--7--8-8-888888-10-101010101010-|
C-0-000000-00-00--0-000000-00-00----0-000000-00-00--8-888888-10-101010101010-|
    ...... .. ..    ...... .. ..      ...... .. ..    ......     . . . . . .
D---------------------------------------------------------------------------|
A---------------------------------------------------------------------------|
F---------------------------------------------------------------------------|
C-0---------------0-----------------0---------------------------------------|
G-0-------5--7--8-0-------8--7--3h7-0-------5--7--8-8-888888-5-555555-------|
C-0-000000-00-00--0-000000-00-00----0-000000-00-00--8-888888-5-555555-15\\\-|
    ...... .. ..    ...... .. ..      ...... .. ..    ......   ......

(Harminazation)- Guitar 2
D--------------------------------------------------------------------------|
A--------------------------------------------------------------------------|
F--------------------------------------------------------------------------|
C-0-----------------0--------------------0---------------------------------|
G-0-------8--10--12-0-------12--10--7h10-0-------8--10--12-8-888888--------|
C-0-000000-00--00---0-000000--00--00-----0-000000-00--00---8-888888--------|
    ...... ..  ..     ......  ..  ..       ...... ..  ..     ......
D--------------------------------------------------------------------------|
A--------------------------------------------------------------------------|
F--------------------------------------------------------------------------|
C-----------------0-----------------0--------------------0-----------------|
G-10-101010101010-0-------8--10--12-0-------12--10--7h10-0-------8--10--12-|
C-10-101010101010-0-000000-00--00---0-000000--00--00-----0-000000-00--00---|
      . . . . . .   ...... ..  ..     ......  ..  ..       ...... ..  ..
D-------------------|
A-------------------|
F-------------------|
C-------------------|
G-8-888888-5-555555-|
C-8-888888-5-555555-|
    ......   ......

Pre-Chorus - Guitar 1
D------------------------------|
A------------------------------|
F------------------------------|
C-0~~~~~~----------------------|
G-0~~~~~~------7~-----8~-------|
C-0~~~~~~----------------------|

Pre-Chorus - Guitar 2
D------------------------------|
A------------------------------|
F------------------------------|
C-0~~~~~~----------------------|
G-0~~~~~~------10~----12~------|
C-0~~~~~~----------------------|

Chorus - Both Guitars
D------------------------------------------------------------|
A------------------------------------------------------------|
F------------------------------------------------------------|
C-0-------------------------10----------------8--------------| (4x)
G-0--10-8-12-10-13-12h13p12-10---12--13-12-10-8--10-12-10-8--|
C-0-0--0-0--0--0--0---------10-10--10---------8-8--8---------|
    .  . .  .  .  .             .   .           .  .


Play this the second time through the Chorus
\  /     \  /       \  /       \  /
 \/       \/         \/         \/
D------------------------------------------------------------|
A------------------------------------------------------------|
F------------------------------------------------------------|
C-0-------------------------10----------------8--------------|
G-0--10-8-12-10-13-12h13p12-10---13--13-12-10-8--12-12-10-8--|
C-0-0--0-0--0--0--0---------10-10--10---------8-8--8---------|
    .  . .  .  .  .             .   .           .  .

Post-Chorus - Both Guitars
D---------------------------------------------------|----------------|
A--------------------------------------------------o|----------------|
F---------------------------------------------------|----------------|
C-12-------------8----------10-------------7--------|-7--------------|
G-12---13--13p12-8--10-10p8-10---12--12p10-7--8-8p7o|-7--8-7h8h10----|
C-12-12--12------8-8--8-----10-10--10------7-7-7----|-7-7-7----------|
      .   .        .  .         .   .        . .        . .
                                                          /\
                                                         /  \
                                                          ||
    On the second time through play this     ----------------|
     at the end of the riff.               -----------------|


Verse 2 - Guitar 1
D----------------------------------------------------------------------------|
A----------------------------------------------------------------------------|
F----------------------------------------------------------------------------|
C-0---------------0-----------------0----------------------------------------|
G-0-------5--7--8-0-------8--7--3h7-0-------5--7--8-8-888888-10-101010101010-|
C-0-000000-00-00--0-000000-00-00----0-000000-00-00--8-888888-10-101010101010-|
    ...... .. ..    ...... .. ..      ...... .. ..    ......     . . . . . .
D---------------------------------------------------------------------------|
A---------------------------------------------------------------------------|
F---------------------------------------------------------------------------|
C-0---------------0-----------------0---------------------------------------|
G-0-------5--7--8-0-------8--7--3h7-0-------5--7--8-8-888888-5-555555-------|
C-0-000000-00-00--0-000000-00-00----0-000000-00-00--8-888888-5-555555-------|
    ...... .. ..    ...... .. ..      ...... .. ..    ......   ......

Verse 2 - Guitar 2
D----------------------------------------------------------------------------|
A----------------------------------------------------------------------------|
F----------------------------------------------------------------------------|
C-0---------------0-----------------0----------------------------------------|
G-0-------5--7--8-0-------8--7--3h7-0-------5--7--8-8-888888-10-101010101010-|
C-0-000000-00-00--0-000000-00-00----0-000000-00-00--8-888888-10-101010101010-|
    ...... .. ..    ...... .. ..      ...... .. ..    ......     . . . . . .
D----------------------------------------------------------------------------|
A----------------------------------------------------------------------------|
F----------------------------------------------------------------------------|
C-0-----------------0--------------------0-----------------------------------|
G-0-------8--10--12-0-------12--10--7h10-0-------8--10--12-8-888888-5-555555-|
C-0-000000-00--00---0-000000--00--00-----0-000000-00--00---8-888888-5-555555-|
    ...... ..  ..     ......  ..  ..       ...... ..  ..     ......   ......


REPEAT PRE-CHORUS

REPEAT CHORUS

REPEAT POST-CHORUS

REPAET INTRO

Breakdown - Both Guitars
D------------------------------------------|
A------------------------------------------|
F------------------------------------------|
C------------------------------------------|
G-000-00-00-000-00-00-000-00-00-000-00-----|
C-000-00-00-000-00-00-000-00-00-000-00-----|
  ... .. .. ... .. .. ... .. .. ... ..
D------------------------------------------|
A------------------------------------------|
F------------------------------------------|
C------------------------------------------|(4x)
G-00-00-00-0-0-00-00-00-00-0-0-00----------|
C-00-00-00-0-0-00-00-00-00-0-0-00----------|
  .. .. .. . . .. .. .. .. . . ..
D----------------------------------------------------------------|
A----------------------------------------------------------------|
F----------------------------------------------------------------|
C----------------------------------------------------------------|
G-000-00-00-000-00-00-000-00-00-000-00-----------------7~-----8~-|
C-000-00-00-000-00-00-000-00-00-000-00-pick scrape\\\\-----------|
  ... .. .. ... .. .. ... .. .. ... ..

REPEAT CHORUS

REPEAT POST-CHORUS

Outro - Both Guitars
D--------------|
A--------------|
F--------------|
C-0~----0------|
G-0~----0------|
C-0~----0------|

I'm pretty sure this is exactly how they play. It's 100%. If anyone has any questions, 
me at the address above. Later
comments
print report bad tab
1 comment total.
0 reply
deadhand329 wrote on November 10 2007, 09:20 am

Metal!

and by metal i mean great job!

I want to post or [tab]
guest
You may want to rate the tab now too:
select rating
Please do not post tabs as comments. Select "correction" instead!