Oops, an error
Loading. Please wait.

Courtesy Bow Tab

version 1
version 1

Intro

Whole song

278 views 1 this week
no commentswrite comment
1 2 3 4 5
please rate
add to favorites
launch autoscroll
font size
0
reset
how to read this tab
guitar tuner
Autoscroll
slow
fast
+/-
esc
set tempo
stop
Help us to improve Ultimate-Guitar.com Take our survey!
×
Author
Difficulty
novice
D|--------------------------------------------------------------|
A|--------------------------------------------------------------|
F|--------------------------------------------------------------|
C|--------------------------------------------------------------|
G|-0-000-5---5----0-000-0-0-0-8---7---3h5p3---------------------|
C|-0-000--0-0-0-0-0-000-0-0-0--0-0-0-0--------------------------|
   . ...  . . . . . ... . . .  . . . .
D|--------------------------------------------------------------|
A|--------------------------------------------------------------|
F|--------------------------------------------------------------|
C|--------------------------------------------------------------|
G|-0-000-5---5----0-000-0-0-0-10---3----7p5h7-------------------|
C|-0-000--0-0-0-0-0-000-0-0-0---0-0-0-0-------------------------|x2
   . ...  . . . . . ... . . .   . . . .
Suggest correction
Give kudos to tab author, rate the tab!
1 2 3 4 5
comments
print report bad tab
guest
You may want to rate the tab now too:
select rating
Please do not post tabs as comments. Select "correction" instead!