Oops, an error
Loading. Please wait.

Malice In Wonderland Tab

477 views 1 this week
no commentswrite comment
1 2 3 4 5
please rate
add to favorites
launch autoscroll
font size
0
reset
how to read this tab
guitar tuner
Tab Pro tools
  • play this tab
  • loop segment
  • change instrument
  • show fretboard
  • metronome
×
Best way to learn
"Malice In Wonderland"
Autoscroll
slow
fast
+/-
esc
set tempo
stop
Contributor
Difficulty
Tuning
advanced
C G C F A D
INTRO:
d|------------------------------------------|
A|------------------------------------------|
F|------------------------------------------|
C|--0---------3---------5-------------------|
G|--0--5-5p3--3--5-5p3--5--5-5p3--88775533--|
C|--0---------3---------5-------------------|

VERSE:
d|------------------------------------------|
A|------------------------------------------|
F|------------------------------------------|
C|--0---------3---------5-------------------|x2
G|--0--5-5p3--3--5-5p3--5--5-5p3--88775533--|
C|--0---------3---------5-------------------|

Then-

Guitar one
d|------------------------------------------|
A|------------------------------------------|
F|------------------------------------------|
C|--0---------3---------5-------------------|
G|--0--5-5p3--3--5-5p3--5--5-5p3--88775533--|x2
C|--0---------3---------5-------------------|

Guitar two
d|------------------------------------------|
A|------------------------------------------|
F|------------------------------------------|
C|--0---------3---------5---------77553322--|x2
G|--0--5-5p3--3--5-5p3--5--5-5p3------------|
C|--0---------3---------5-------------------|

CHORUS:
d|----------------------------------------------------------------------|
A|----------------------------------------------------------------------|
F|----------------------------------------------------------------------|
C|----------------------------------------------------------------------|
G|----33355---33355888777---33355---8---777555---33355---33355888777----|
C|-000-----000-----------000-----000-000------000-----000---------------|

d|---------------------------------------------|
A|---------------------------------------------|
F|---------------------------------------------|
C|---------------------------------------------|x2
G|----1010------121212131313121212101010121212-|
C|-888----101010-------------------------------|

d|--------------------------------------------------------|
A|--------------------------------------------------------|
F|--------------------------------------------------------|
C|--------------------------------------------------------|
G|-------1010101010-----88888---888777888101010888777888--|x2
C|--88888----------55555-----888--------------------------|

REPEAT VERSE
REPEAT CHORUS

INTERLUDE:
d|----------------------------------------------------------------------|
A|----------------------------------------------------------------------|
F|----------------------------------------------------------------------|
C|----------------------------------------------------------------------|
G|--00--00--00--00--8-8-8-8-3-3-3-3--00--00--00--00--8-8-8-8-3-3-3-3----|
C|--00--00--00--00--8-8-8-8-3-3-3-3--00--00--00--00--8-8-8-8-3-3-3-3----|
    ..  ..  ..  ..                   ..  ..  ..  ..
d|----------------------------------------------------------------------|
A|----------------------------------------------------------------------|
F|----------------------------------------------------------------------|
C|----------------------------------------------------------------------|
G|-8-8-8-8-3-3-3-3-8-8-8-8-3-3-3-3-8-8-8-8-3-3-3-3-5-5-5-5-5-5-5-5------|
C|-8-8-8-8-3-3-3-3-8-8-8-8-3-3-3-3-8-8-8-8-3-3-3-3-5-5-5-5-5-5-5-5------|

Guitar one
d|----------------------------------------------|
A|----------------------------------------------|
F|----------------------------------------------|
C|-----8-7-----5-3-----7--5--3~-----------------|
G|--0-------0-------0------------8888888-REST---|
C|--0-------0-------0------------8888888-REST---|

Guitar two
d|----------------------------------------------|
A|----------------------------------------------|
F|----------------------------------------------|
C|-----8-7-----5-3------------------------------|
G|--0-------0-------0--8--7--5~--REST---888888--|
C|--0-------0-------0------------REST---888888--|


BRIDGE:
d|-------------------------------------------------------------|
A|-------------------------------------------------------------|
F|-------------------5h7-5h8p5h7p5h8p5h7-3-5-------------------|
C|-------------------------------------------------------------|
G|--0---0-0---0-0-0--------------------------8888888--888888---|x4
C|--0---0-0---0-0-0--------------------------8888888--888888---|
    .   . .   . . .

Guitar one
d|----------------------------------------------------------------------|
A|----------------------------------------------------------------------|
F|----------------------------------------------------------------------|
C|-----------------------------------------<3>--------------------------|
G|--8888888--888888--6-5-3-1-3-1-8-7-5-3-5------------------------------|
C|--8888888--888888--6-5-3-1-3-1----------------------------------------|

guitar two
d|----------------------------------------------------------------------|
A|----------------------------------------------------------------------|
F|----------------------------------------------------------------------|
C|-------------------------------7-5-3-2-3-<3>--------------------------|
G|--8888888--888888--6-5-3-1-3-1----------------------------------------|
C|--8888888--888888--6-5-3-1-3-1----------------------------------------|

d|--------------------------------------------------------------------------
A|--------------------------------------------------------------------------
F|--------------------------------------------------------------------------
C|--------------------------------------------------------------------------
G|555555557777777788888888--1010----1212-5555555557777777788888888--88--1010
C|------------------------88----1010------------------------------55--88----

d|----------------------------------------------------------------------|
A|----------------------------------------------------------------------|
F|----------------------------------------------------------------------|
C|----------------------------------------------------------------------|
G|--88888888101010101010101012121212121212--131313121212101010121212----|
C|----------------------------------------10----------------------------|

d|----------------------------------------------------------------------|
A|----------------------------------------------------------------------|
F|----------------------------------------------------------------------|
C|----------------------------------------------------------------------|
G|--8888888812121212121212125555555588773355----------------------------|
C|----------------------------------------------------------------------|

Repeat chorus

guitar one
d|-------------------------------------|
A|-------------------------------------|
F|--------------------TRESTRESTRES-----|
C|--------------------STRESTRESTRE-----|
G|--8888888--888888---ESTRESTRESTR-----|
C|--8888888--888888---RESTRESTREST-----|

guitar two
d|-------------------------------------|
A|-------------------------------------|
F|--RESTRESTREST-----------------------|
C|--RESTRESTREST-----------------------|
G|--RESTRESTREST---8888888--888888-----|
C|--RESTRESTREST---8888888--888888-----|


d|-------------------------------------------------------------|
A|-------------------------------------------------------------|
F|-------------------5h7-5h8p5h7p5h8p5h7-3-5-------------------|
C|-------------------------------------------------------------|
G|--0---0-0---0-0-0--------------------------8888888--888888---|x4
C|--0---0-0---0-0-0--------------------------8888888--888888---|
    .   . .   . . .

d|----------------------|
A|----------------------|
F|----------------------|
C|----------------------|
G|--8888888--888888-0---|
C|--8888888--888888-0---|
comments
We did not receive enough feedback on this tab! Please rate:
print report bad tab
1 2 3 4 5
I want to post or [tab]
guest
You may want to rate the tab now too:
select rating
Please do not post tabs as comments. Select "correction" instead!