Oops, an error
Loading. Please wait.

To The Nines Tab

version 1
version 1

Whole song

Interactive

556 views 1 this week
2 commentsread comments
1 2 3 4 5
excellent!
x 5
add to favorites
launch autoscroll
font size
0
reset
how to read this tab
guitar tuner
Tab Pro tools
  • play this tab
  • loop segment
  • change instrument
  • show fretboard
  • metronome
×
Best way to learn
"To The Nines"
Autoscroll
slow
fast
+/-
esc
set tempo
stop
Contributor
This song is really fun to play. Enjoy!

 Drop C-

  Intro
||---------------------------------------------------------------------|
||---------------------------------------------------------------------|
||---------------------------------------------------------------------|
||---------------------------------------------------------------------|
||-0--10p8-8--0--10-12-10-8-10-8--10p8-8--8--10-12-10-8-10-------------|
||-0----------0----------------8----------8----------------------------|

||---------------------------------------------------------------------|
||---------------------------------------------------------------------|
||---------------------------------------------------------------------|
||-------------------------------------------8-7-----------------------|
||-5--8p7-7--5--8-10-8-7-8-8-10p8-8-10-10-10-----10-8------------------|
||-5---------5-------------8------8-10-10-10---------------------------|

  Vers I
||---------------------------------------------------------------------|
||---------------------------------------------------------------------|
||---------------------------------------------------------------------|
||---------------------------------------------------------------------|
||-----5---8p7p5-----------7---10p8p7-7h8h10---------------------------|
||-0-0---0-------0-0-0-0-0---0-----------------------------------------| x2
   . .   .       . . . . .   .
||---------------------------------------------------------------------|
||---------------------------------------------------------------------|
||---------------------------------------------------------------------|
||---------------------------------------------------------------------|
||-----10---10---10----12----12----12----10h12p10----------------------|
||-8-8---8-----8----8-----10----10----10-------------------------------|
   . .   .     .    .     .     .     .

  Vers II
||---------------------------------------------------------------------|
||---------------------------------------------------------------------|
||---------------------------------------------------------------------|
||---------------------5-5-7----------------10-------------------------|
||-0--0-0-0-0------0-0-3-3-5-0--0-0-000-000-8---7----------------------|
||-0--0-0-0-0------0-0-------0--0-0-000-000-----7----------------------| x2
      . . . .      . .          . . ... ...
||---------------------------------------------------------------------|
||---------------------------------------------------------------------|
||---------------------------------------------------------------------|
||-----------------------------7h8p7-----------------------------------|
||-8----8---12---10---8---10---------7----7---10---8---7---8---7h8p7---|
||-8--8---8----8----8---8----8-------7--7---7----7---7---7---7---------|
      .   .    .    .   .    .          .   .    .   .   .   .
||---------------------------------------------------------------------|
||---------------------------------------------------------------------|
||---------------------------------------------------------------------|
||---------------------5-5-7----------------10-------------------------|
||-0--0-0-0-0------0-0-3-3-5-0--0-0-000-000-8---7----------------------|
||-0--0-0-0-0------0-0-------0--0-0-000-000-----7----------------------| x2
      . . . .      . .          . . ... ...
||---------------------------------------------------------------------|
||---------------------------------------------------------------------|
||---------------------------------------------------------------------|
||-----------------------------7h8p7-----------------------------------|
||-8----8---12---10---8---10---------7----7---10---8---7---8---8-10-12-|
||-8--8---8----8----8---8----8-------7--7---7----7---7---7---7---------|
      .   .    .    .   .    .          .   .    .   .   .   .
||---------------------------------------------------------------------|
||---------------------------------------------------------------------|
||---------------------------------------------------------------------|
||-----------------------------7h8p7-----------------------------------|
||-8----8---12---10---8---10---------7----7---10---8---7---8---7h8p7---|
||-8--8---8----8----8---8----8-------7--7---7----7---7---7---7---------|
      .   .    .    .   .    .          .   .    .   .   .   .

||---------------------------------------------------------------------|
||---------------------------------------------------------------------|
||---------------------------------------------------------------------|
||---------------------------------------------------------------------|
||-0---------------------------------0---------------------------------|
||-0---------------------------------0---------------------------------|


  Vers I again

  Intro again


  Vers III
||---------------------------------------------------------------------|
||---------------------------------------------------------------------|
||---------------------------------------------------------------------|
||---------------------------------------------------------------------|
||-----10p8-8---0----10---12-10-8-10-----10p8-8---8----10---12-10-8-10-|
||-0-0--------0-0--0----0------------8-8--------8-8--8----8------------|
   . .        .    .    .            . .        .    .    .
||---------------------------------------------------------------------|
||---------------------------------------------------------------------|
||---------------------------------------------------------------------|
||-----------------------------------------------------8-7-------------|
||-----8p7-7---5----8---10-8-7-8-----10p8-8---10-10-10-----10-8--------|
||-5-5-------5-5--5---5----------8-8--------8-10-10-10-----------------|
   . .       .    .   .          . .        .

  Vers II again

  Vers III again

||---------------------------------------------------------------------|
||---------------------------------------------------------------------|
||---------------------------------------------------------------------|
||---------------------------------------------------------------------|
||---------------------------------------------------------------------|
||-0-0-0-0-0-0-0-0-5-0-0-8-0-0-7-0-0-0-0-0-0-0-0-0-5-0-0-8-0-0-7-------|
   . . . . . . . . . . . . . . . . . . . . . . . . . . . . . . .
||---------------------------------------------------------------------|
||---------------------------------------------------------------------|
||---------------------------------------------------------------------|
||---------------------------------------------------------------------|
||---------------------------------------------------------------------|
||-0-0-0-0-0-0-0-0-5-0-0-8-0-0-7-3-3-3-3-3-3-3-3-3-5-5-5-5-5-5-5-------|
   . . . . . . . . . . . . . . . . . . . . . . . . . . . . . . .
||---------------------------------------------------------------------|
||---------------------------------------------------------------------|
||---------------------------------------------------------------------|
||---------------------------------------------------------------------|
||---------------------------------------------------------------------|
||-0-0-0-0-0-0-0-0-5-0-0-8-0-0-7-0-0-0-0-0-0-0-0-0-5-0-0-8-0-0-7-------|
   . . . . . . . . . . . . . . . . . . . . . . . . . . . . . . .
||---------------------------------------------------------------------|
||---------------------------------------------------------------------|
||---------------------------------------------------------------------|
||---------------------------------------------------------------------|
||---------------------------------------------------------------------|
||-0-0-0-0-0-0-0-0-5-0-0-8-0-0-7-3-3-3-3-3-3-3-3-3-3-3-3-3-3-3-3-------| x3
   . . . . . . . . . . . . . . . . . . . . . . .
||------------------------------------------------------------------|
||------------------------------------------------------------------|
||------------------------------------------------------------------|
||------------------------------------------------------------------|
||-0-0-0-0-0-0--0-0--0--0--0--0-0--0-0-0-0-0-0-0-0-0-0--0-0-0-0-0-0-|
||-0-0-0-0-0-0--0-0--0--0--0--0-0--0-0-0-0-0-0-0-0-0-0--0-0-0-0-0-0-|
   . . . . . .  . .  .  .  .  . .  . . . . . . . . . .  . . . . . .
||----------------------------|
||----------------------------|
||----------------------------|
||----------------------------|
||----7---8---5---3---5p3h5p3-|
||--0---0---0---0-------------|
    .   .   .   .

I'm nearly sure this is exactly how they play. It`s 99 %. Thanks please rate!
comments
print report bad tab
2 comments total.
0 reply
patent wrote on January 26 2007, 01:28 pm

props, this is perfect. evryone should learn this its so cool.

0 reply
deadhand329 wrote on October 7 2007, 08:42 pm

excellent

I want to post or [tab]
guest
You may want to rate the tab now too:
select rating
Please do not post tabs as comments. Select "correction" instead!